  0
SECTION
  2
HEADER
  9
$ACADVER
  1
AC1015
  9
$ACADMAINTVER
 70
     6
  9
$DWGCODEPAGE
  3
ANSI_1254
  9
$INSBASE
 10
0.0
 20
0.0
 30
0.0
  9
$EXTMIN
 10
0.0
 20
0.0
 30
0.0
  9
$EXTMAX
 10
279.4
 20
215.9
 30
0.0
  9
$LIMMIN
 10
0.0
 20
0.0
  9
$LIMMAX
 10
279.4
 20
215.9
  9
$ORTHOMODE
 70
     0
  9
$REGENMODE
 70
     1
  9
$FILLMODE
 70
     1
  9
$QTEXTMODE
 70
     0
  9
$MIRRTEXT
 70
     1
  9
$LTSCALE
 40
1.0
  9
$ATTMODE
 70
     1
  9
$TEXTSIZE
 40
3.5
  9
$TRACEWID
 40
1.0
  9
$TEXTSTYLE
  7
Standard
  9
$CLAYER
  8
0
  9
$CELTYPE
  6
ByLayer
  9
$CECOLOR
 62
   256
  9
$CELTSCALE
 40
1.0
  9
$DISPSILH
 70
     0
  9
$DIMSCALE
 40
1.0
  9
$DIMASZ
 40
3.5
  9
$DIMEXO
 40
1.0
  9
$DIMDLI
 40
3.75
  9
$DIMRND
 40
0.0
  9
$DIMDLE
 40
0.0
  9
$DIMEXE
 40
1.0
  9
$DIMTP
 40
0.0
  9
$DIMTM
 40
0.0
  9
$DIMTXT
 40
3.5
  9
$DIMCEN
 40
2.5
  9
$DIMTSZ
 40
0.0
  9
$DIMTOL
 70
     0
  9
$DIMLIM
 70
     0
  9
$DIMTIH
 70
     1
  9
$DIMTOH
 70
     1
  9
$DIMSE1
 70
     0
  9
$DIMSE2
 70
     0
  9
$DIMTAD
 70
     1
  9
$DIMZIN
 70
     0
  9
$DIMBLK
  1

  9
$DIMASO
 70
     1
  9
$DIMSHO
 70
     1
  9
$DIMPOST
  1

  9
$DIMAPOST
  1

  9
$DIMALT
 70
     0
  9
$DIMALTD
 70
     3
  9
$DIMALTF
 40
0.0393700787
  9
$DIMLFAC
 40
1.0
  9
$DIMTOFL
 70
     1
  9
$DIMTVP
 40
0.0
  9
$DIMTIX
 70
     0
  9
$DIMSOXD
 70
     0
  9
$DIMSAH
 70
     0
  9
$DIMBLK1
  1

  9
$DIMBLK2
  1

  9
$DIMSTYLE
  2
ISO-25
  9
$DIMCLRD
 70
     0
  9
$DIMCLRE
 70
     0
  9
$DIMCLRT
 70
     0
  9
$DIMTFAC
 40
1.0
  9
$DIMGAP
 40
1.524
  9
$DIMJUST
 70
     0
  9
$DIMSD1
 70
     0
  9
$DIMSD2
 70
     0
  9
$DIMTOLJ
 70
     0
  9
$DIMTZIN
 70
     0
  9
$DIMALTZ
 70
     0
  9
$DIMALTTZ
 70
     0
  9
$DIMUPT
 70
     0
  9
$DIMDEC
 70
     2
  9
$DIMTDEC
 70
     2
  9
$DIMALTU
 70
     2
  9
$DIMALTTD
 70
     3
  9
$DIMTXSTY
  7
Standard
  9
$DIMAUNIT
 70
     0
  9
$DIMADEC
 70
     2
  9
$DIMALTRND
 40
0.0
  9
$DIMAZIN
 70
     0
  9
$DIMDSEP
 70
    44
  9
$DIMATFIT
 70
     3
  9
$DIMFRAC
 70
     0
  9
$DIMLDRBLK
  1

  9
$DIMLUNIT
 70
     2
  9
$DIMLWD
 70
    -2
  9
$DIMLWE
 70
    -2
  9
$DIMTMOVE
 70
     0
  9
$LUNITS
 70
     2
  9
$LUPREC
 70
     2
  9
$SKETCHINC
 40
1.0
  9
$FILLETRAD
 40
10.0
  9
$AUNITS
 70
     0
  9
$AUPREC
 70
     2
  9
$MENU
  1
.
  9
$ELEVATION
 40
0.0
  9
$PELEVATION
 40
0.0
  9
$THICKNESS
 40
0.0
  9
$LIMCHECK
 70
     0
  9
$CHAMFERA
 40
0.0
  9
$CHAMFERB
 40
0.0
  9
$CHAMFERC
 40
0.0
  9
$CHAMFERD
 40
0.0
  9
$SKPOLY
 70
     0
  9
$TDCREATE
 40
2459741.604500729
  9
$TDUCREATE
 40
2459741.479500729
  9
$TDUPDATE
 40
2459741.604500914
  9
$TDUUPDATE
 40
2459741.479500914
  9
$TDINDWG
 40
0.0000000116
  9
$TDUSRTIMER
 40
0.0000000116
  9
$USRTIMER
 70
     1
  9
$ANGBASE
 50
0.0
  9
$ANGDIR
 70
     0
  9
$PDMODE
 70
     0
  9
$PDSIZE
 40
-1.0
  9
$PLINEWID
 40
0.0
  9
$SPLFRAME
 70
     0
  9
$SPLINETYPE
 70
     6
  9
$SPLINESEGS
 70
     8
  9
$HANDSEED
  5
11F
  9
$SURFTAB1
 70
     6
  9
$SURFTAB2
 70
     6
  9
$SURFTYPE
 70
     6
  9
$SURFU
 70
     6
  9
$SURFV
 70
     6
  9
$UCSBASE
  2

  9
$UCSNAME
  2

  9
$UCSORG
 10
0.0
 20
0.0
 30
0.0
  9
$UCSXDIR
 10
1.0
 20
0.0
 30
0.0
  9
$UCSYDIR
 10
0.0
 20
1.0
 30
0.0
  9
$UCSORTHOREF
  2

  9
$UCSORTHOVIEW
 70
     0
  9
$UCSORGTOP
 10
0.0
 20
0.0
 30
0.0
  9
$UCSORGBOTTOM
 10
0.0
 20
0.0
 30
0.0
  9
$UCSORGLEFT
 10
0.0
 20
0.0
 30
0.0
  9
$UCSORGRIGHT
 10
0.0
 20
0.0
 30
0.0
  9
$UCSORGFRONT
 10
0.0
 20
0.0
 30
0.0
  9
$UCSORGBACK
 10
0.0
 20
0.0
 30
0.0
  9
$PUCSBASE
  2

  9
$PUCSNAME
  2

  9
$PUCSORG
 10
0.0
 20
0.0
 30
0.0
  9
$PUCSXDIR
 10
1.0
 20
0.0
 30
0.0
  9
$PUCSYDIR
 10
0.0
 20
1.0
 30
0.0
  9
$PUCSORTHOREF
  2

  9
$PUCSORTHOVIEW
 70
     0
  9
$PUCSORGTOP
 10
0.0
 20
0.0
 30
0.0
  9
$PUCSORGBOTTOM
 10
0.0
 20
0.0
 30
0.0
  9
$PUCSORGLEFT
 10
0.0
 20
0.0
 30
0.0
  9
$PUCSORGRIGHT
 10
0.0
 20
0.0
 30
0.0
  9
$PUCSORGFRONT
 10
0.0
 20
0.0
 30
0.0
  9
$PUCSORGBACK
 10
0.0
 20
0.0
 30
0.0
  9
$USERI1
 70
     0
  9
$USERI2
 70
     0
  9
$USERI3
 70
     0
  9
$USERI4
 70
     0
  9
$USERI5
 70
     0
  9
$USERR1
 40
0.0
  9
$USERR2
 40
0.0
  9
$USERR3
 40
0.0
  9
$USERR4
 40
0.0
  9
$USERR5
 40
0.0
  9
$WORLDVIEW
 70
     1
  9
$SHADEDGE
 70
     3
  9
$SHADEDIF
 70
    70
  9
$TILEMODE
 70
     1
  9
$MAXACTVP
 70
    64
  9
$PINSBASE
 10
0.0
 20
0.0
 30
0.0
  9
$PLIMCHECK
 70
     0
  9
$PEXTMIN
 10
1.0000000000E+20
 20
1.0000000000E+20
 30
1.0000000000E+20
  9
$PEXTMAX
 10
-1.0000000000E+20
 20
-1.0000000000E+20
 30
-1.0000000000E+20
  9
$PLIMMIN
 10
0.0
 20
0.0
  9
$PLIMMAX
 10
420.0
 20
297.0
  9
$UNITMODE
 70
     0
  9
$VISRETAIN
 70
     1
  9
$PLINEGEN
 70
     0
  9
$PSLTSCALE
 70
     1
  9
$TREEDEPTH
 70
  3020
  9
$CMLSTYLE
  2
Standard
  9
$CMLJUST
 70
     0
  9
$CMLSCALE
 40
20.0
  9
$PROXYGRAPHICS
 70
     1
  9
$MEASUREMENT
 70
     1
  9
$CELWEIGHT
370
    -1
  9
$ENDCAPS
280
     0
  9
$JOINSTYLE
280
     0
  9
$LWDISPLAY
290
     1
  9
$INSUNITS
 70
     4
  9
$HYPERLINKBASE
  1

  9
$STYLESHEET
  1

  9
$XEDIT
290
     1
  9
$CEPSNTYPE
380
     0
  9
$PSTYLEMODE
290
     1
  9
$FINGERPRINTGUID
  2
{113f870d-e3c9-4fd1-a2a2-a96741339a8d}
  9
$VERSIONGUID
  2
{FAEB1C32-E019-11D5-929B-00C0DF256EC4}
  9
$EXTNAMES
290
     1
  9
$PSVPSCALE
 40
0.0
  9
$OLESTARTUP
290
     0
  0
ENDSEC
  0
SECTION
  2
CLASSES
  0
CLASS
  1
ACDBDICTIONARYWDFLT
  2
AcDbDictionaryWithDefault
  3
ObjectDBX Classes
 90
        0
280
     0
281
     0
  0
CLASS
  1
VISUALSTYLE
  2
AcDbVisualStyle
  3
ObjectDBX Classes
 90
     4095
280
     0
281
     0
  0
CLASS
  1
MATERIAL
  2
AcDbMaterial
  3
ObjectDBX Classes
 90
     1153
280
     0
281
     0
  0
CLASS
  1
SCALE
  2
AcDbScale
  3
ObjectDBX Classes
 90
     1153
280
     0
281
     0
  0
CLASS
  1
TABLESTYLE
  2
AcDbTableStyle
  3
ObjectDBX Classes
 90
     4095
280
     0
281
     0
  0
CLASS
  1
MLEADERSTYLE
  2
AcDbMLeaderStyle
  3
ACDB_MLEADERSTYLE_CLASS
 90
     4095
280
     0
281
     0
  0
CLASS
  1
SUN
  2
AcDbSun
  3
SCENEOE
 90
     1153
280
     0
281
     0
  0
CLASS
  1
ACDBPLACEHOLDER
  2
AcDbPlaceHolder
  3
ObjectDBX Classes
 90
        0
280
     0
281
     0
  0
CLASS
  1
LAYOUT
  2
AcDbLayout
  3
ObjectDBX Classes
 90
        0
280
     0
281
     0
  0
ENDSEC
  0
SECTION
  2
TABLES
  0
TABLE
  2
VPORT
  5
8
330
0
100
AcDbSymbolTable
 70
     1
  0
VPORT
  5
29
330
8
100
AcDbSymbolTableRecord
100
AcDbViewportTableRecord
  2
*Active
 70
     0
 10
0.0
 20
0.0
 11
1.0
 21
1.0
 12
139.7
 22
107.95
 13
0.0
 23
0.0
 14
10.0
 24
10.0
 15
10.0
 25
10.0
 16
0.0
 26
0.0
 36
1.0
 17
0.0
 27
0.0
 37
0.0
 40
215.9
 41
1.2941176471
 42
50.0
 43
0.0
 44
0.0
 50
0.0
 51
0.0
 71
     0
 72
  2000
 73
     1
 74
     3
 75
     0
 76
     0
 77
     0
 78
     0
281
     0
 65
     1
110
0.0
120
0.0
130
0.0
111
1.0
121
0.0
131
0.0
112
0.0
122
1.0
132
0.0
 79
     0
146
0.0
  0
ENDTAB
  0
TABLE
  2
LTYPE
  5
5
330
0
100
AcDbSymbolTable
 70
     6
  0
LTYPE
  5
14
330
5
100
AcDbSymbolTableRecord
100
AcDbLinetypeTableRecord
  2
ByBlock
 70
     0
  3

 72
    65
 73
     0
 40
0.0
  0
LTYPE
  5
15
330
5
100
AcDbSymbolTableRecord
100
AcDbLinetypeTableRecord
  2
ByLayer
 70
     0
  3

 72
    65
 73
     0
 40
0.0
  0
LTYPE
  5
16
330
5
100
AcDbSymbolTableRecord
100
AcDbLinetypeTableRecord
  2
Continuous
 70
     0
  3
Solid line
 72
    65
 73
     0
 40
0.0
  0
LTYPE
  5
6E
330
5
100
AcDbSymbolTableRecord
100
AcDbLinetypeTableRecord
  2
HIDDEN
 70
     0
  3
Hidden __ __ __ __ __ __ __ __ __ __ __ __ __ __
 72
    65
 73
     2
 40
1.905
 49
1.27
 74
     0
 49
-0.635
 74
     0
  0
LTYPE
  5
6F
330
5
100
AcDbSymbolTableRecord
100
AcDbLinetypeTableRecord
  2
PHANTOM
 70
     0
  3
Phantom ______  __  __  ______  __  __  ______
 72
    65
 73
     6
 40
12.7
 49
6.35
 74
     0
 49
-1.27
 74
     0
 49
1.27
 74
     0
 49
-1.27
 74
     0
 49
1.27
 74
     0
 49
-1.27
 74
     0
  0
LTYPE
  5
70
330
5
100
AcDbSymbolTableRecord
100
AcDbLinetypeTableRecord
  2
CENTER
 70
     0
  3
Center ____ _ ____ _ ____ _ ____ _ ____ _ ____
 72
    65
 73
     4
 40
10.16
 49
6.35
 74
     0
 49
-1.27
 74
     0
 49
1.27
 74
     0
 49
-1.27
 74
     0
  0
LTYPE
  5
71
330
5
100
AcDbSymbolTableRecord
100
AcDbLinetypeTableRecord
  2
CENTERX2
 70
     0
  3
Center (2x) ________  __  ________  __  _____
 72
    65
 73
     4
 40
20.32
 49
12.7
 74
     0
 49
-2.54
 74
     0
 49
2.54
 74
     0
 49
-2.54
 74
     0
  0
LTYPE
  5
72
330
5
100
AcDbSymbolTableRecord
100
AcDbLinetypeTableRecord
  2
DOT2
 70
     0
  3
Dot (.5x) ........................................
 72
    65
 73
     2
 40
0.635
 49
0.0
 74
     0
 49
-0.635
 74
     0
  0
ENDTAB
  0
TABLE
  2
LAYER
  5
2
330
0
100
AcDbSymbolTable
 70
    17
  0
LAYER
  5
10
330
2
100
AcDbSymbolTableRecord
100
AcDbLayerTableRecord
  2
0
 70
     0
 62
     7
  6
Continuous
370
    -3
390
F
  0
LAYER
  5
73
330
2
100
AcDbSymbolTableRecord
100
AcDbLayerTableRecord
  2
FORMAT
 70
     0
 62
     7
  6
Continuous
370
    -3
390
F
  0
LAYER
  5
74
330
2
100
AcDbSymbolTableRecord
100
AcDbLayerTableRecord
  2
YARDIMCI_GEOMETRI
 70
     0
 62
    -6
  6
Continuous
290
     0
370
    -3
390
F
  0
LAYER
  5
75
330
2
100
AcDbSymbolTableRecord
100
AcDbLayerTableRecord
  2
SAYFA_CERCEVESI
 70
     0
 62
     7
  6
Continuous
370
    25
390
F
  0
LAYER
  5
76
330
2
100
AcDbSymbolTableRecord
100
AcDbLayerTableRecord
  2
ANTET
 70
     0
 62
     7
  6
Continuous
370
    -3
390
F
  0
LAYER
  5
77
330
2
100
AcDbSymbolTableRecord
100
AcDbLayerTableRecord
  2
OLCU
 70
     0
 62
   150
  6
Continuous
370
    -3
390
F
  0
LAYER
  5
78
330
2
100
AcDbSymbolTableRecord
100
AcDbLayerTableRecord
  2
METIN
 70
     0
 62
    96
  6
Continuous
370
    -3
390
F
  0
LAYER
  5
79
330
2
100
AcDbSymbolTableRecord
100
AcDbLayerTableRecord
  2
BALON
 70
     0
 62
     5
  6
Continuous
370
    -3
390
F
  0
LAYER
  5
7A
330
2
100
AcDbSymbolTableRecord
100
AcDbLayerTableRecord
  2
VURGU
 70
     0
 62
     7
  6
Continuous
370
    -3
390
F
  0
LAYER
  5
7B
330
2
100
AcDbSymbolTableRecord
100
AcDbLayerTableRecord
  2
SILIK
 70
     0
 62
     7
  6
Continuous
370
    -3
390
F
  0
LAYER
  5
7C
330
2
100
AcDbSymbolTableRecord
100
AcDbLayerTableRecord
  2
MODEL
 70
     0
 62
     7
  6
Continuous
370
    -3
390
F
  0
LAYER
  5
7D
330
2
100
AcDbSymbolTableRecord
100
AcDbLayerTableRecord
  2
DETAYLANDıRMA
 70
     0
 62
   190
  6
Continuous
370
    -3
390
F
  0
LAYER
  5
7E
330
2
100
AcDbSymbolTableRecord
100
AcDbLayerTableRecord
  2
TOLERANS
 70
     0
 62
   230
  6
Continuous
370
    -3
390
F
  0
LAYER
  5
7F
330
2
100
AcDbSymbolTableRecord
100
AcDbLayerTableRecord
  2
MERKEZ_CIZGILERI
 70
     0
 62
    30
  6
Continuous
370
    -3
390
F
  0
LAYER
  5
80
330
2
100
AcDbSymbolTableRecord
100
AcDbLayerTableRecord
  2
KESIT-DETAY_CIZGILERI
 70
     0
 62
     7
  6
Continuous
370
    -3
390
F
  0
LAYER
  5
81
330
2
100
AcDbSymbolTableRecord
100
AcDbLayerTableRecord
  2
\U+041E\U+0421\U+0415\U+0412\U+042B\U+0415
 70
     0
 62
     7
  6
Continuous
370
    -3
390
F
  0
LAYER
  5
82
330
2
100
AcDbSymbolTableRecord
100
AcDbLayerTableRecord
  2
\U+0412\U+041E\U+0414\U+042F\U+041D\U+042B\U+0415_\U+0417\U+041D\U+0410\U+041A\U+0418
 70
     0
 62
    11
  6
Continuous
370
    -3
390
F
  0
ENDTAB
  0
TABLE
  2
STYLE
  5
3
330
0
100
AcDbSymbolTable
 70
     1
  0
STYLE
  5
11
330
3
100
AcDbSymbolTableRecord
100
AcDbTextStyleTableRecord
  2
Standard
 70
     0
 40
0.0
 41
1.0
 50
0.0
 71
     0
 42
3.5
  3
txt
  4

  0
ENDTAB
  0
TABLE
  2
VIEW
  5
6
330
0
100
AcDbSymbolTable
 70
     0
  0
ENDTAB
  0
TABLE
  2
UCS
  5
7
330
0
100
AcDbSymbolTable
 70
     0
  0
ENDTAB
  0
TABLE
  2
APPID
  5
9
330
0
100
AcDbSymbolTable
 70
     1
  0
APPID
  5
12
330
9
100
AcDbSymbolTableRecord
100
AcDbRegAppTableRecord
  2
ACAD
 70
     0
  0
ENDTAB
  0
TABLE
  2
DIMSTYLE
  5
A
330
0
100
AcDbSymbolTable
 70
     1
100
AcDbDimStyleTable
  0
DIMSTYLE
105
27
330
A
100
AcDbSymbolTableRecord
100
AcDbDimStyleTableRecord
  2
ISO-25
 70
     0
 41
2.5
 42
0.625
 43
3.75
 44
1.25
 73
     0
 74
     0
 77
     1
 78
     8
140
2.5
141
2.5
143
0.0393700787
147
0.625
171
     3
172
     1
178
     0
271
     2
272
     2
274
     3
278
    44
283
     0
284
     8
340
11
  0
ENDTAB
  0
TABLE
  2
BLOCK_RECORD
  5
1
330
0
100
AcDbSymbolTable
 70
     5
  0
BLOCK_RECORD
  5
1F
330
1
100
AcDbSymbolTableRecord
100
AcDbBlockTableRecord
  2
*Model_Space
340
22
  0
BLOCK_RECORD
  5
1B
330
1
100
AcDbSymbolTableRecord
100
AcDbBlockTableRecord
  2
*Paper_Space
340
1E
  0
BLOCK_RECORD
  5
23
330
1
100
AcDbSymbolTableRecord
100
AcDbBlockTableRecord
  2
*Paper_Space0
340
26
  0
BLOCK_RECORD
  5
A5
330
1
100
AcDbSymbolTableRecord
100
AcDbBlockTableRecord
  2
SW_CENTERMARKSYMBOL_0
340
0
102
{BLKREFS
331
B0
102
}
  0
BLOCK_RECORD
  5
C1
330
1
100
AcDbSymbolTableRecord
100
AcDbBlockTableRecord
  2
SW_CENTERMARKSYMBOL_1
340
0
102
{BLKREFS
331
CC
102
}
  0
BLOCK_RECORD
  5
DE
330
1
100
AcDbSymbolTableRecord
100
AcDbBlockTableRecord
  2
SW_CENTERMARKSYMBOL_2
340
0
102
{BLKREFS
331
E9
102
}
  0
BLOCK_RECORD
  5
F9
330
1
100
AcDbSymbolTableRecord
100
AcDbBlockTableRecord
  2
SW_CENTERMARKSYMBOL_3
340
0
102
{BLKREFS
331
104
102
}
  0
ENDTAB
  0
ENDSEC
  0
SECTION
  2
BLOCKS
  0
BLOCK
  5
20
330
1F
100
AcDbEntity
  8
0
100
AcDbBlockBegin
  2
*Model_Space
 70
     0
 10
0.0
 20
0.0
 30
0.0
  3
*Model_Space
  1

  0
ENDBLK
  5
21
330
1F
100
AcDbEntity
  8
0
100
AcDbBlockEnd
  0
BLOCK
  5
1C
330
1B
100
AcDbEntity
 67
     1
  8
0
100
AcDbBlockBegin
  2
*Paper_Space
 70
     0
 10
0.0
 20
0.0
 30
0.0
  3
*Paper_Space
  1

  0
ENDBLK
  5
1D
330
1B
100
AcDbEntity
 67
     1
  8
0
100
AcDbBlockEnd
  0
BLOCK
  5
24
330
23
100
AcDbEntity
  8
0
100
AcDbBlockBegin
  2
*Paper_Space0
 70
     0
 10
0.0
 20
0.0
 30
0.0
  3
*Paper_Space0
  1

  0
ENDBLK
  5
25
330
23
100
AcDbEntity
  8
0
100
AcDbBlockEnd
  0
BLOCK
  5
A6
330
A5
100
AcDbEntity
  8
0
100
AcDbBlockBegin
  2
SW_CENTERMARKSYMBOL_0
 70
     0
 10
0.0
 20
0.0
 30
0.0
  3
SW_CENTERMARKSYMBOL_0
  1

  0
LINE
  5
A8
330
A5
100
AcDbEntity
  8
FORMAT
 62
     0
100
AcDbLine
 10
0.0
 20
0.0
 30
0.0
 11
0.0
 21
2.5
 31
0.0
  0
LINE
  5
A9
330
A5
100
AcDbEntity
  8
FORMAT
 62
     0
100
AcDbLine
 10
0.0
 20
0.0
 30
0.0
 11
-2.5
 21
0.0
 31
0.0
  0
LINE
  5
AA
330
A5
100
AcDbEntity
  8
FORMAT
 62
     0
100
AcDbLine
 10
0.0
 20
0.0
 30
0.0
 11
0.0
 21
-2.5
 31
0.0
  0
LINE
  5
AB
330
A5
100
AcDbEntity
  8
FORMAT
 62
     0
100
AcDbLine
 10
0.0
 20
0.0
 30
0.0
 11
2.5
 21
0.0
 31
0.0
  0
LINE
  5
AC
330
A5
100
AcDbEntity
  8
FORMAT
 62
     0
100
AcDbLine
 10
0.0
 20
5.0
 30
0.0
 11
0.0
 21
24.0
 31
0.0
  0
LINE
  5
AD
330
A5
100
AcDbEntity
  8
FORMAT
 62
     0
100
AcDbLine
 10
-5.0
 20
0.0
 30
0.0
 11
-24.0
 21
0.0
 31
0.0
  0
LINE
  5
AE
330
A5
100
AcDbEntity
  8
FORMAT
 62
     0
100
AcDbLine
 10
0.0
 20
-5.0
 30
0.0
 11
0.0
 21
-24.0
 31
0.0
  0
LINE
  5
AF
330
A5
100
AcDbEntity
  8
FORMAT
 62
     0
100
AcDbLine
 10
5.0
 20
0.0
 30
0.0
 11
24.0
 21
0.0
 31
0.0
  0
ENDBLK
  5
A7
330
A5
100
AcDbEntity
  8
0
100
AcDbBlockEnd
  0
BLOCK
  5
C2
330
C1
100
AcDbEntity
  8
0
100
AcDbBlockBegin
  2
SW_CENTERMARKSYMBOL_1
 70
     0
 10
0.0
 20
0.0
 30
0.0
  3
SW_CENTERMARKSYMBOL_1
  1

  0
LINE
  5
C4
330
C1
100
AcDbEntity
  8
FORMAT
 62
     0
100
AcDbLine
 10
0.0
 20
0.0
 30
0.0
 11
0.0
 21
2.5
 31
0.0
  0
LINE
  5
C5
330
C1
100
AcDbEntity
  8
FORMAT
 62
     0
100
AcDbLine
 10
0.0
 20
0.0
 30
0.0
 11
-2.5
 21
0.0
 31
0.0
  0
LINE
  5
C6
330
C1
100
AcDbEntity
  8
FORMAT
 62
     0
100
AcDbLine
 10
0.0
 20
0.0
 30
0.0
 11
0.0
 21
-2.5
 31
0.0
  0
LINE
  5
C7
330
C1
100
AcDbEntity
  8
FORMAT
 62
     0
100
AcDbLine
 10
0.0
 20
0.0
 30
0.0
 11
2.5
 21
0.0
 31
0.0
  0
LINE
  5
C8
330
C1
100
AcDbEntity
  8
FORMAT
 62
     0
100
AcDbLine
 10
0.0
 20
5.0
 30
0.0
 11
0.0
 21
24.0
 31
0.0
  0
LINE
  5
C9
330
C1
100
AcDbEntity
  8
FORMAT
 62
     0
100
AcDbLine
 10
-5.0
 20
0.0
 30
0.0
 11
-24.0
 21
0.0
 31
0.0
  0
LINE
  5
CA
330
C1
100
AcDbEntity
  8
FORMAT
 62
     0
100
AcDbLine
 10
0.0
 20
-5.0
 30
0.0
 11
0.0
 21
-24.0
 31
0.0
  0
LINE
  5
CB
330
C1
100
AcDbEntity
  8
FORMAT
 62
     0
100
AcDbLine
 10
5.0
 20
0.0
 30
0.0
 11
24.0
 21
0.0
 31
0.0
  0
ENDBLK
  5
C3
330
C1
100
AcDbEntity
  8
0
100
AcDbBlockEnd
  0
BLOCK
  5
DF
330
DE
100
AcDbEntity
  8
0
100
AcDbBlockBegin
  2
SW_CENTERMARKSYMBOL_2
 70
     0
 10
0.0
 20
0.0
 30
0.0
  3
SW_CENTERMARKSYMBOL_2
  1

  0
LINE
  5
E1
330
DE
100
AcDbEntity
  8
FORMAT
 62
     0
100
AcDbLine
 10
0.0
 20
0.0
 30
0.0
 11
0.0
 21
2.5
 31
0.0
  0
LINE
  5
E2
330
DE
100
AcDbEntity
  8
FORMAT
 62
     0
100
AcDbLine
 10
0.0
 20
0.0
 30
0.0
 11
-2.5
 21
0.0
 31
0.0
  0
LINE
  5
E3
330
DE
100
AcDbEntity
  8
FORMAT
 62
     0
100
AcDbLine
 10
0.0
 20
0.0
 30
0.0
 11
0.0
 21
-2.5
 31
0.0
  0
LINE
  5
E4
330
DE
100
AcDbEntity
  8
FORMAT
 62
     0
100
AcDbLine
 10
0.0
 20
0.0
 30
0.0
 11
2.5
 21
0.0
 31
0.0
  0
LINE
  5
E5
330
DE
100
AcDbEntity
  8
FORMAT
 62
     0
100
AcDbLine
 10
0.0
 20
5.0
 30
0.0
 11
0.0
 21
24.0
 31
0.0
  0
LINE
  5
E6
330
DE
100
AcDbEntity
  8
FORMAT
 62
     0
100
AcDbLine
 10
-5.0
 20
0.0
 30
0.0
 11
-24.0
 21
0.0
 31
0.0
  0
LINE
  5
E7
330
DE
100
AcDbEntity
  8
FORMAT
 62
     0
100
AcDbLine
 10
0.0
 20
-5.0
 30
0.0
 11
0.0
 21
-24.0
 31
0.0
  0
LINE
  5
E8
330
DE
100
AcDbEntity
  8
FORMAT
 62
     0
100
AcDbLine
 10
5.0
 20
0.0
 30
0.0
 11
24.0
 21
0.0
 31
0.0
  0
ENDBLK
  5
E0
330
DE
100
AcDbEntity
  8
0
100
AcDbBlockEnd
  0
BLOCK
  5
FA
330
F9
100
AcDbEntity
  8
0
100
AcDbBlockBegin
  2
SW_CENTERMARKSYMBOL_3
 70
     0
 10
0.0
 20
0.0
 30
0.0
  3
SW_CENTERMARKSYMBOL_3
  1

  0
LINE
  5
FC
330
F9
100
AcDbEntity
  8
FORMAT
 62
     0
100
AcDbLine
 10
0.0
 20
0.0
 30
0.0
 11
0.0
 21
2.5
 31
0.0
  0
LINE
  5
FD
330
F9
100
AcDbEntity
  8
FORMAT
 62
     0
100
AcDbLine
 10
0.0
 20
0.0
 30
0.0
 11
-2.5
 21
0.0
 31
0.0
  0
LINE
  5
FE
330
F9
100
AcDbEntity
  8
FORMAT
 62
     0
100
AcDbLine
 10
0.0
 20
0.0
 30
0.0
 11
0.0
 21
-2.5
 31
0.0
  0
LINE
  5
FF
330
F9
100
AcDbEntity
  8
FORMAT
 62
     0
100
AcDbLine
 10
0.0
 20
0.0
 30
0.0
 11
2.5
 21
0.0
 31
0.0
  0
LINE
  5
100
330
F9
100
AcDbEntity
  8
FORMAT
 62
     0
100
AcDbLine
 10
0.0
 20
5.0
 30
0.0
 11
0.0
 21
24.0
 31
0.0
  0
LINE
  5
101
330
F9
100
AcDbEntity
  8
FORMAT
 62
     0
100
AcDbLine
 10
-5.0
 20
0.0
 30
0.0
 11
-24.0
 21
0.0
 31
0.0
  0
LINE
  5
102
330
F9
100
AcDbEntity
  8
FORMAT
 62
     0
100
AcDbLine
 10
0.0
 20
-5.0
 30
0.0
 11
0.0
 21
-24.0
 31
0.0
  0
LINE
  5
103
330
F9
100
AcDbEntity
  8
FORMAT
 62
     0
100
AcDbLine
 10
5.0
 20
0.0
 30
0.0
 11
24.0
 21
0.0
 31
0.0
  0
ENDBLK
  5
FB
330
F9
100
AcDbEntity
  8
0
100
AcDbBlockEnd
  0
ENDSEC
  0
SECTION
  2
ENTITIES
  0
LINE
  5
83
330
1F
100
AcDbEntity
  8
0
  6
Continuous
 62
     7
370
    25
100
AcDbLine
 10
95.8381372123
 20
109.9058431394
 30
0.0
 11
95.8381372123
 21
78.9058431394
 31
0.0
  0
LINE
  5
84
330
1F
100
AcDbEntity
  8
0
  6
Continuous
 62
     7
370
    25
100
AcDbLine
 10
138.8381372123
 20
78.9058431394
 30
0.0
 11
138.8381372123
 21
109.9058431394
 31
0.0
  0
ARC
  5
85
330
1F
100
AcDbEntity
  8
0
  6
Continuous
 62
     7
370
    25
100
AcDbCircle
 10
147.3381372123
 20
109.9058431394
 30
0.0
 40
8.500000000000014
100
AcDbArc
 50
90.0
 51
180.0
  0
ARC
  5
86
330
1F
100
AcDbEntity
  8
0
  6
Continuous
 62
     7
370
    25
100
AcDbCircle
 10
147.3381372123
 20
109.9058431394
 30
0.0
 40
51.50000000000003
100
AcDbArc
 50
90.0
 51
180.0
  0
LINE
  5
87
330
1F
100
AcDbEntity
  8
0
  6
Continuous
 62
     7
370
    25
100
AcDbLine
 10
178.3381372123
 20
161.4058431394
 30
0.0
 11
147.3381372123
 21
161.4058431394
 31
0.0
  0
LINE
  5
88
330
1F
100
AcDbEntity
  8
0
  6
Continuous
 62
     7
370
    25
100
AcDbLine
 10
147.3381372123
 20
118.4058431394
 30
0.0
 11
178.3381372123
 21
118.4058431394
 31
0.0
  0
CIRCLE
  5
89
330
1F
100
AcDbEntity
  8
0
  6
Continuous
 62
     7
370
    25
100
AcDbCircle
 10
117.3381372123
 20
88.9058431394
 30
0.0
 40
5.000000000000014
  0
CIRCLE
  5
8A
330
1F
100
AcDbEntity
  8
0
  6
Continuous
 62
     7
370
    25
100
AcDbCircle
 10
117.3381372123
 20
88.9058431394
 30
0.0
 40
7.000000000000014
  0
CIRCLE
  5
8B
330
1F
100
AcDbEntity
  8
0
  6
Continuous
 62
     7
370
    25
100
AcDbCircle
 10
168.3381372123
 20
139.9058431394
 30
0.0
 40
7.000000000000028
  0
CIRCLE
  5
8C
330
1F
100
AcDbEntity
  8
0
  6
Continuous
 62
     7
370
    25
100
AcDbCircle
 10
168.3381372123
 20
139.9058431394
 30
0.0
 40
5.0
  0
LINE
  5
8D
330
1F
100
AcDbEntity
  8
0
  6
Continuous
 62
     7
370
    25
100
AcDbLine
 10
117.3381372123
 20
78.9058431394
 30
0.0
 11
138.8381372123
 21
78.9058431394
 31
0.0
  0
LINE
  5
8E
330
1F
100
AcDbEntity
  8
0
  6
Continuous
 62
     7
370
    25
100
AcDbLine
 10
95.8381372123
 20
78.9058431394
 30
0.0
 11
117.3381372123
 21
78.9058431394
 31
0.0
  0
LINE
  5
8F
330
1F
100
AcDbEntity
  8
0
  6
Continuous
 62
     7
370
    25
100
AcDbLine
 10
178.3381372123
 20
139.9058431394
 30
0.0
 11
178.3381372123
 21
118.4058431394
 31
0.0
  0
LINE
  5
90
330
1F
100
AcDbEntity
  8
0
  6
Continuous
 62
     7
370
    25
100
AcDbLine
 10
178.3381372123
 20
161.4058431394
 30
0.0
 11
178.3381372123
 21
139.9058431394
 31
0.0
  0
LINE
  5
91
330
1F
100
AcDbEntity
  8
0
  6
Continuous
 62
     1
370
    25
100
AcDbLine
 10
117.3381372123
 20
109.9058431394
 30
0.0
 11
138.8381372123
 21
109.9058431394
 31
0.0
  0
LINE
  5
92
330
1F
100
AcDbEntity
  8
0
  6
Continuous
 62
     1
370
    25
100
AcDbLine
 10
95.8381372123
 20
109.9058431394
 30
0.0
 11
117.3381372123
 21
109.9058431394
 31
0.0
  0
LINE
  5
93
330
1F
100
AcDbEntity
  8
0
  6
Continuous
 62
     1
370
    25
100
AcDbLine
 10
147.3381372123
 20
139.9058431394
 30
0.0
 11
147.3381372123
 21
118.4058431394
 31
0.0
  0
LINE
  5
94
330
1F
100
AcDbEntity
  8
0
  6
Continuous
 62
     1
370
    25
100
AcDbLine
 10
147.3381372123
 20
161.4058431394
 30
0.0
 11
147.3381372123
 21
139.9058431394
 31
0.0
  0
LINE
  5
95
330
1F
100
AcDbEntity
  8
0
  6
Continuous
 62
     7
370
    25
100
AcDbLine
 10
-16.9886756268
 20
146.9058431394
 30
0.0
 11
-33.1520889842
 21
146.9058431394
 31
0.0
  0
LINE
  5
96
330
1F
100
AcDbEntity
  8
0
  6
Continuous
 62
     7
370
    25
100
AcDbLine
 10
-33.1520889842
 20
132.9058431394
 30
0.0
 11
-16.9892844263
 21
132.9058431394
 31
0.0
  0
LINE
  5
97
330
1F
100
AcDbEntity
  8
0
  6
Continuous
 62
     7
370
    25
100
AcDbLine
 10
-18.1520889842
 20
132.9058431394
 30
0.0
 11
-18.1520889842
 21
109.9058431394
 31
0.0
  0
LINE
  5
98
330
1F
100
AcDbEntity
  8
0
  6
Continuous
 62
     7
370
    25
100
AcDbLine
 10
24.8479110158
 20
109.9058431394
 30
0.0
 11
24.8479110158
 21
139.9058431394
 31
0.0
  0
LINE
  5
99
330
1F
100
AcDbEntity
  8
0
  6
Continuous
 62
     7
370
    25
100
AcDbLine
 10
-18.1520889842
 20
81.9058431394
 30
0.0
 11
-18.1520889842
 21
78.9058431394
 31
0.0
  0
LINE
  5
9A
330
1F
100
AcDbEntity
  8
0
  6
Continuous
 62
     7
370
    25
100
AcDbLine
 10
-18.1520889842
 20
109.9058431394
 30
0.0
 11
-18.1520889842
 21
95.9026474528
 31
0.0
  0
LINE
  5
9B
330
1F
100
AcDbEntity
  8
0
  6
Continuous
 62
     7
370
    25
100
AcDbLine
 10
24.8479110158
 20
78.9058431394
 30
0.0
 11
24.8479110158
 21
109.9058431394
 31
0.0
  0
LINE
  5
9C
330
1F
100
AcDbEntity
  8
0
  6
Continuous
 62
     7
370
    25
100
AcDbLine
 10
-18.1510593126
 20
95.9058431394
 30
0.0
 11
-33.1520889842
 21
95.9058431394
 31
0.0
  0
LINE
  5
9D
330
1F
100
AcDbEntity
  8
0
  6
Continuous
 62
     7
370
    25
100
AcDbLine
 10
-33.1520889842
 20
81.9058431394
 30
0.0
 11
-18.1520889842
 21
81.9058431394
 31
0.0
  0
CIRCLE
  5
9E
330
1F
100
AcDbEntity
  8
0
  6
Continuous
 62
     7
370
    25
100
AcDbCircle
 10
3.3479110158
 20
139.9058431394
 30
0.0
 40
21.5
  0
CIRCLE
  5
9F
330
1F
100
AcDbEntity
  8
0
  6
Continuous
 62
     7
370
    25
100
AcDbCircle
 10
3.3479110158
 20
139.9058431394
 30
0.0
 40
9.999999999999996
  0
LINE
  5
A0
330
1F
100
AcDbEntity
  8
0
  6
Continuous
 62
     7
370
    25
100
AcDbLine
 10
-33.1520889842
 20
146.9058431394
 30
0.0
 11
-33.1520889842
 21
132.9058431394
 31
0.0
  0
SPLINE
  5
A1
330
1F
100
AcDbEntity
  8
0
  6
Continuous
 62
     7
370
    25
100
AcDbSpline
210
0.0
220
0.0
230
1.0
 70
     8
 71
     3
 72
    26
 73
    22
 74
     0
 42
0.00000001
 43
0.00000001
 40
0.0
 40
0.0
 40
0.0
 40
0.0
 40
0.0510509714993761
 40
0.1036284924752941
 40
0.1546672764786594
 40
0.2071062475484879
 40
0.2596831506879023
 40
0.3137032588986013
 40
0.3676181100357058
 40
0.4231954575207114
 40
0.4753284598983362
 40
0.5291134902973484
 40
0.5790679523375022
 40
0.6304326630502306
 40
0.6812205579258482
 40
0.7333477260872895
 40
0.7866140675734816
 40
0.8413929832575877
 40
0.8950552265803601
 40
0.9504063201805405
 40
1.0
 40
1.0
 40
1.0
 40
1.0
 10
-18.15208898422158
 20
81.90584313938342
 30
0.0
 10
-18.14630808476699
 20
81.92349736515725
 30
0.0
 10
-18.13457342276086
 20
81.95933372143077
 30
0.0
 10
-18.04255617458684
 20
82.24677855116573
 30
0.0
 10
-17.90511831148405
 20
82.69893525298438
 30
0.0
 10
-17.73154847059589
 20
83.31620078187757
 30
0.0
 10
-17.53699981299622
 20
84.0937331081322
 30
0.0
 10
-17.34256453691712
 20
85.01246114453326
 30
0.0
 10
-17.16875437636073
 20
86.06300651001608
 30
0.0
 10
-17.04200069190008
 20
87.18994434536536
 30
0.0
 10
-16.97640584691048
 20
88.36924548008525
 30
0.0
 10
-16.97924436572187
 20
89.52478104469235
 30
0.0
 10
-17.04612725672606
 20
90.65471687293095
 30
0.0
 10
-17.16522562757728
 20
91.71425965939602
 30
0.0
 10
-17.32671669263598
 20
92.71127567309343
 30
0.0
 10
-17.51415738162105
 20
93.61838393144427
 30
0.0
 10
-17.71104798409448
 20
94.41929139384729
 30
0.0
 10
-17.89381662247037
 20
95.07497695686938
 30
0.0
 10
-18.04043143212233
 20
95.55848802196813
 30
0.0
 10
-18.13531361976521
 20
95.85459363885414
 30
0.0
 10
-18.14600270634827
 20
95.88722627177152
 30
0.0
 10
-18.15105404068622
 20
95.90264745279688
 30
0.0
  0
LINE
  5
A2
330
1F
100
AcDbEntity
  8
0
  6
Continuous
 62
     7
370
    25
100
AcDbLine
 10
-18.1520889842
 20
78.9058431394
 30
0.0
 11
24.8479110158
 21
78.9058431394
 31
0.0
  0
LINE
  5
A3
330
1F
100
AcDbEntity
  8
0
  6
Continuous
 62
     7
370
    25
100
AcDbLine
 10
-33.1520889842
 20
95.9058431394
 30
0.0
 11
-33.1520889842
 21
81.9058431394
 31
0.0
  0
LINE
  5
A4
330
1F
100
AcDbEntity
  8
0
  6
Continuous
 62
     1
370
    25
100
AcDbLine
 10
-18.1520889842
 20
109.9058431394
 30
0.0
 11
24.8479110158
 21
109.9058431394
 31
0.0
  0
INSERT
  5
B0
330
1F
100
AcDbEntity
  8
FORMAT
 62
     7
100
AcDbBlockReference
  2
SW_CENTERMARKSYMBOL_0
 10
3.3479110158
 20
139.9058431394
 30
0.0
  0
LINE
  5
B1
330
1F
100
AcDbEntity
  8
0
  6
Continuous
 62
     7
370
    25
100
AcDbLine
 10
124.3381372123
 20
248.9591319034
 30
0.0
 11
124.3381372123
 21
265.1219405463
 31
0.0
  0
LINE
  5
B2
330
1F
100
AcDbEntity
  8
0
  6
Continuous
 62
     7
370
    25
100
AcDbLine
 10
110.3381372123
 20
265.1219405463
 30
0.0
 11
110.3381372123
 21
248.9581196285
 31
0.0
  0
LINE
  5
B3
330
1F
100
AcDbEntity
  8
0
  6
Continuous
 62
     7
370
    25
100
AcDbLine
 10
147.3381372123
 20
250.1219405463
 30
0.0
 11
124.3381372123
 21
250.1219405463
 31
0.0
  0
LINE
  5
B4
330
1F
100
AcDbEntity
  8
0
  6
Continuous
 62
     7
370
    25
100
AcDbLine
 10
117.3381372123
 20
207.1219405463
 30
0.0
 11
147.3381372123
 21
207.1219405463
 31
0.0
  0
LINE
  5
B5
330
1F
100
AcDbEntity
  8
0
  6
Continuous
 62
     7
370
    25
100
AcDbLine
 10
161.3381372123
 20
250.1219405463
 30
0.0
 11
147.3381372123
 21
250.1219405463
 31
0.0
  0
LINE
  5
B6
330
1F
100
AcDbEntity
  8
0
  6
Continuous
 62
     7
370
    25
100
AcDbLine
 10
178.3381372123
 20
250.1219405463
 30
0.0
 11
175.3349415257
 21
250.1219405463
 31
0.0
  0
LINE
  5
B7
330
1F
100
AcDbEntity
  8
0
  6
Continuous
 62
     7
370
    25
100
AcDbLine
 10
147.3381372123
 20
207.1219405463
 30
0.0
 11
178.3381372123
 21
207.1219405463
 31
0.0
  0
LINE
  5
B8
330
1F
100
AcDbEntity
  8
0
  6
Continuous
 62
     7
370
    25
100
AcDbLine
 10
175.3381372123
 20
250.1209108747
 30
0.0
 11
175.3381372123
 21
265.1219405463
 31
0.0
  0
LINE
  5
B9
330
1F
100
AcDbEntity
  8
0
  6
Continuous
 62
     7
370
    25
100
AcDbLine
 10
161.3381372123
 20
265.1219405463
 30
0.0
 11
161.3381372123
 21
250.1219405463
 31
0.0
  0
CIRCLE
  5
BA
330
1F
100
AcDbEntity
  8
0
  6
Continuous
 62
     7
370
    25
100
AcDbCircle
 10
117.3381372123
 20
228.6219405463
 30
0.0
 40
9.999999999999972
  0
CIRCLE
  5
BB
330
1F
100
AcDbEntity
  8
0
  6
Continuous
 62
     7
370
    25
100
AcDbCircle
 10
117.3381372123
 20
228.6219405463
 30
0.0
 40
21.50000000000003
  0
LINE
  5
BC
330
1F
100
AcDbEntity
  8
0
  6
Continuous
 62
     7
370
    25
100
AcDbLine
 10
124.3381372123
 20
265.1219405463
 30
0.0
 11
110.3381372123
 21
265.1219405463
 31
0.0
  0
SPLINE
  5
BD
330
1F
100
AcDbEntity
  8
0
  6
Continuous
 62
     7
370
    25
100
AcDbSpline
210
0.0
220
0.0
230
1.0
 70
     8
 71
     3
 72
    26
 73
    22
 74
     0
 42
0.00000001
 43
0.00000001
 40
0.0
 40
0.0
 40
0.0
 40
0.0
 40
0.051050971499376
 40
0.1036284924752938
 40
0.1546672764786591
 40
0.2071062475484875
 40
0.259683150687902
 40
0.3137032588986011
 40
0.3676181100357058
 40
0.4231954575207114
 40
0.4753284598983361
 40
0.5291134902973482
 40
0.579067952337502
 40
0.6304326630502302
 40
0.6812205579258477
 40
0.7333477260872889
 40
0.7866140675734813
 40
0.8413929832575874
 40
0.8950552265803597
 40
0.9504063201805399
 40
1.0
 40
1.0
 40
1.0
 40
1.0
 10
161.3381372123319
 20
250.1219405463174
 30
0.0
 10
161.3557914381057
 20
250.1161596468628
 30
0.0
 10
161.3916277943793
 20
250.1044249848567
 30
0.0
 10
161.6790726241142
 20
250.0124077366827
 30
0.0
 10
162.1312293259328
 20
249.8749698735799
 30
0.0
 10
162.7484948548261
 20
249.7014000326917
 30
0.0
 10
163.5260271810807
 20
249.5068513750921
 30
0.0
 10
164.4447552174817
 20
249.3124160990129
 30
0.0
 10
165.4953005829645
 20
249.1386059384565
 30
0.0
 10
166.6222384183139
 20
249.0118522539959
 30
0.0
 10
167.8015395530337
 20
248.9462574090063
 30
0.0
 10
168.9570751176408
 20
248.9490959278177
 30
0.0
 10
170.0870109458794
 20
249.0159788188219
 30
0.0
 10
171.1465537323445
 20
249.1350771896731
 30
0.0
 10
172.1435697460419
 20
249.2965682547318
 30
0.0
 10
173.0506780043928
 20
249.4840089437169
 30
0.0
 10
173.8515854667958
 20
249.6808995461903
 30
0.0
 10
174.5072710298179
 20
249.8636681845662
 30
0.0
 10
174.9907820949167
 20
250.0102829942182
 30
0.0
 10
175.2868877118026
 20
250.1051651818611
 30
0.0
 10
175.31952034472
 20
250.1158542684441
 30
0.0
 10
175.3349415257454
 20
250.120905602782
 30
0.0
  0
LINE
  5
BE
330
1F
100
AcDbEntity
  8
0
  6
Continuous
 62
     7
370
    25
100
AcDbLine
 10
178.3381372123
 20
250.1219405463
 30
0.0
 11
178.3381372123
 21
207.1219405463
 31
0.0
  0
LINE
  5
BF
330
1F
100
AcDbEntity
  8
0
  6
Continuous
 62
     7
370
    25
100
AcDbLine
 10
175.3381372123
 20
265.1219405463
 30
0.0
 11
161.3381372123
 21
265.1219405463
 31
0.0
  0
LINE
  5
C0
330
1F
100
AcDbEntity
  8
0
  6
Continuous
 62
     1
370
    25
100
AcDbLine
 10
147.3381372123
 20
250.1219405463
 30
0.0
 11
147.3381372123
 21
207.1219405463
 31
0.0
  0
INSERT
  5
CC
330
1F
100
AcDbEntity
  8
FORMAT
 62
     7
100
AcDbBlockReference
  2
SW_CENTERMARKSYMBOL_1
 10
117.3381372123
 20
228.6219405463
 30
0.0
  0
LINE
  5
CD
330
1F
100
AcDbEntity
  8
0
  6
Continuous
 62
     7
370
    25
100
AcDbLine
 10
227.4272647071
 20
109.9058431394
 30
0.0
 11
227.4272647071
 21
78.9058431394
 31
0.0
  0
LINE
  5
CE
330
1F
100
AcDbEntity
  8
0
  6
Continuous
 62
     7
370
    25
100
AcDbLine
 10
270.4272647071
 20
95.9026474528
 30
0.0
 11
270.4272647071
 21
109.9058431394
 31
0.0
  0
LINE
  5
CF
330
1F
100
AcDbEntity
  8
0
  6
Continuous
 62
     7
370
    25
100
AcDbLine
 10
270.4272647071
 20
78.9058431394
 30
0.0
 11
270.4272647071
 21
81.9058431394
 31
0.0
  0
LINE
  5
D0
330
1F
100
AcDbEntity
  8
0
  6
Continuous
 62
     7
370
    25
100
AcDbLine
 10
270.4272647071
 20
109.9058431394
 30
0.0
 11
270.4272647071
 21
139.9058431394
 31
0.0
  0
LINE
  5
D1
330
1F
100
AcDbEntity
  8
0
  6
Continuous
 62
     7
370
    25
100
AcDbLine
 10
227.4272647071
 20
139.9058431394
 30
0.0
 11
227.4272647071
 21
109.9058431394
 31
0.0
  0
LINE
  5
D2
330
1F
100
AcDbEntity
  8
0
  6
Continuous
 62
     7
370
    25
100
AcDbLine
 10
270.4272647071
 20
81.9058431394
 30
0.0
 11
285.4272647071
 21
81.9058431394
 31
0.0
  0
LINE
  5
D3
330
1F
100
AcDbEntity
  8
0
  6
Continuous
 62
     7
370
    25
100
AcDbLine
 10
285.4272647071
 20
95.9058431394
 30
0.0
 11
270.4262350355
 21
95.9058431394
 31
0.0
  0
LINE
  5
D4
330
1F
100
AcDbEntity
  8
0
  6
Continuous
 62
     7
370
    25
100
AcDbLine
 10
270.4272647071
 20
132.9058431394
 30
0.0
 11
285.4272647071
 21
132.9058431394
 31
0.0
  0
LINE
  5
D5
330
1F
100
AcDbEntity
  8
0
  6
Continuous
 62
     7
370
    25
100
AcDbLine
 10
285.4272647071
 20
146.9058431394
 30
0.0
 11
269.2634437893
 21
146.9058431394
 31
0.0
  0
LINE
  5
D6
330
1F
100
AcDbEntity
  8
0
  6
Continuous
 62
     7
370
    25
100
AcDbLine
 10
227.4272647071
 20
78.9058431394
 30
0.0
 11
270.4272647071
 21
78.9058431394
 31
0.0
  0
SPLINE
  5
D7
330
1F
100
AcDbEntity
  8
0
  6
Continuous
 62
     7
370
    25
100
AcDbSpline
210
0.0
220
0.0
230
1.0
 70
     8
 71
     3
 72
    27
 73
    23
 74
     0
 42
0.00000001
 43
0.00000001
 40
0.0
 40
0.0
 40
0.0
 40
0.0
 40
0.0018447357606285
 40
0.0548609074063366
 40
0.1049632623028903
 40
0.1564516984968685
 40
0.2078731290249412
 40
0.260666306687976
 40
0.31425558198221
 40
0.3694020653156392
 40
0.4227520639524975
 40
0.477808079990637
 40
0.5285754964784406
 40
0.5808715898003802
 40
0.6308474705806045
 40
0.6821630471780735
 40
0.7342441765850873
 40
0.7877302674261848
 40
0.8416273560728799
 40
0.8971517941977358
 40
0.9478367197796151
 40
1.0
 40
1.0
 40
1.0
 40
1.0
 10
270.4262297635604
 20
95.9026474527969
 30
0.0
 10
270.4265730305515
 20
95.90370744402901
 30
0.0
 10
270.4367815053979
 20
95.93523070176461
 30
0.0
 10
270.3998314537347
 20
95.82192346716805
 30
0.0
 10
270.3141440231735
 20
95.55305106898057
 30
0.0
 10
270.1757472298863
 20
95.09743174617961
 30
0.0
 10
270.0026602488963
 20
94.47990821910969
 30
0.0
 10
269.8092787165773
 20
93.7054676699563
 30
0.0
 10
269.6138951968556
 20
92.77940946747873
 30
0.0
 10
269.442208155561
 20
91.73542162512395
 30
0.0
 10
269.3148073369722
 20
90.59482447426396
 30
0.0
 10
269.2512723359303
 20
89.43084315140412
 30
0.0
 10
269.2554089794749
 20
88.25961934561263
 30
0.0
 10
269.3222358636492
 20
87.14444051850485
 30
0.0
 10
269.4434477589878
 20
86.07636127368889
 30
0.0
 10
269.6044721716754
 20
85.08622332464338
 30
0.0
 10
269.7930065908719
 20
84.1771170875707
 30
0.0
 10
269.9889505477545
 20
83.3823323038187
 30
0.0
 10
270.1726144619299
 20
82.72408841445119
 30
0.0
 10
270.3151699513515
 20
82.25495555263143
 30
0.0
 10
270.4093703286615
 20
81.96046491740778
 30
0.0
 10
270.4212430276668
 20
81.9242240425431
 30
0.0
 10
270.4272647070958
 20
81.90584313938342
 30
0.0
  0
ARC
  5
D8
330
1F
100
AcDbEntity
  8
0
  6
Continuous
 62
     7
370
    25
100
AcDbCircle
 10
248.9272647071
 20
139.9058431394
 30
0.0
 40
21.50000000000003
100
AcDbArc
 50
0.0
 51
180.0
  0
LINE
  5
D9
330
1F
100
AcDbEntity
  8
0
  6
Continuous
 62
     7
370
    25
100
AcDbLine
 10
285.4272647071
 20
88.9058431394
 30
0.0
 11
285.4272647071
 21
95.9058431394
 31
0.0
  0
LINE
  5
DA
330
1F
100
AcDbEntity
  8
0
  6
Continuous
 62
     7
370
    25
100
AcDbLine
 10
285.4272647071
 20
81.9058431394
 30
0.0
 11
285.4272647071
 21
88.9058431394
 31
0.0
  0
LINE
  5
DB
330
1F
100
AcDbEntity
  8
0
  6
Continuous
 62
     7
370
    25
100
AcDbLine
 10
285.4272647071
 20
139.9058431394
 30
0.0
 11
285.4272647071
 21
146.9058431394
 31
0.0
  0
LINE
  5
DC
330
1F
100
AcDbEntity
  8
0
  6
Continuous
 62
     7
370
    25
100
AcDbLine
 10
285.4272647071
 20
132.9058431394
 30
0.0
 11
285.4272647071
 21
139.9058431394
 31
0.0
  0
LINE
  5
DD
330
1F
100
AcDbEntity
  8
0
  6
Continuous
 62
     1
370
    25
100
AcDbLine
 10
227.4272647071
 20
109.9058431394
 30
0.0
 11
270.4272647071
 21
109.9058431394
 31
0.0
  0
INSERT
  5
E9
330
1F
100
AcDbEntity
  8
FORMAT
 62
     7
100
AcDbBlockReference
  2
SW_CENTERMARKSYMBOL_2
 10
248.9272647071
 20
139.9058431394
 30
0.0
  0
LINE
  5
EA
330
1F
100
AcDbEntity
  8
0
  6
Continuous
 62
     7
370
    25
100
AcDbLine
 10
117.3381372123
 20
-21.2787737183
 30
0.0
 11
147.3381372123
 21
-21.2787737183
 31
0.0
  0
LINE
  5
EB
330
1F
100
AcDbEntity
  8
0
  6
Continuous
 62
     7
370
    25
100
AcDbLine
 10
147.3381372123
 20
21.7212262817
 30
0.0
 11
117.3381372123
 21
21.7212262817
 31
0.0
  0
LINE
  5
EC
330
1F
100
AcDbEntity
  8
0
  6
Continuous
 62
     7
370
    25
100
AcDbLine
 10
178.3381372123
 20
21.7212262817
 30
0.0
 11
147.3381372123
 21
21.7212262817
 31
0.0
  0
LINE
  5
ED
330
1F
100
AcDbEntity
  8
0
  6
Continuous
 62
     7
370
    25
100
AcDbLine
 10
175.3349415257
 20
-21.2787737183
 30
0.0
 11
178.3381372123
 21
-21.2787737183
 31
0.0
  0
LINE
  5
EE
330
1F
100
AcDbEntity
  8
0
  6
Continuous
 62
     7
370
    25
100
AcDbLine
 10
147.3381372123
 20
-21.2787737183
 30
0.0
 11
161.3381372123
 21
-21.2787737183
 31
0.0
  0
LINE
  5
EF
330
1F
100
AcDbEntity
  8
0
  6
Continuous
 62
     7
370
    25
100
AcDbLine
 10
161.3381372123
 20
-21.2787737183
 30
0.0
 11
161.3381372123
 21
-36.2787737183
 31
0.0
  0
LINE
  5
F0
330
1F
100
AcDbEntity
  8
0
  6
Continuous
 62
     7
370
    25
100
AcDbLine
 10
175.3381372123
 20
-36.2787737183
 30
0.0
 11
175.3381372123
 21
-21.2777440466
 31
0.0
  0
LINE
  5
F1
330
1F
100
AcDbEntity
  8
0
  6
Continuous
 62
     7
370
    25
100
AcDbLine
 10
110.3381372123
 20
-20.1149528005
 30
0.0
 11
110.3381372123
 21
-36.2787737183
 31
0.0
  0
LINE
  5
F2
330
1F
100
AcDbEntity
  8
0
  6
Continuous
 62
     7
370
    25
100
AcDbLine
 10
124.3381372123
 20
-36.2787737183
 30
0.0
 11
124.3381372123
 21
-21.2787737183
 31
0.0
  0
ARC
  5
F3
330
1F
100
AcDbEntity
  8
0
  6
Continuous
 62
     7
370
    25
100
AcDbCircle
 10
117.3381372123
 20
0.2212262817
 30
0.0
 40
21.50000000000001
100
AcDbArc
 50
90.0
 51
270.0
  0
SPLINE
  5
F4
330
1F
100
AcDbEntity
  8
0
  6
Continuous
 62
     7
370
    25
100
AcDbSpline
210
0.0
220
0.0
230
1.0
 70
     8
 71
     3
 72
    27
 73
    23
 74
     0
 42
0.00000001
 43
0.00000001
 40
0.0
 40
0.0
 40
0.0
 40
0.0
 40
0.0018447357606279
 40
0.0548609074063361
 40
0.1049632623028896
 40
0.156451698496868
 40
0.2078731290249407
 40
0.2606663066879756
 40
0.3142555819822102
 40
0.3694020653156396
 40
0.4227520639524978
 40
0.4778080799906365
 40
0.5285754964784404
 40
0.58087158980038
 40
0.6308474705806042
 40
0.6821630471780732
 40
0.7342441765850868
 40
0.7877302674261841
 40
0.8416273560728792
 40
0.8971517941977348
 40
0.9478367197796145
 40
1.0
 40
1.0
 40
1.0
 40
1.0
 10
175.3349415257454
 20
-21.27773877473668
 30
0.0
 10
175.3360015169775
 20
-21.27808204172771
 30
0.0
 10
175.367524774713
 20
-21.28829051657411
 30
0.0
 10
175.2542175401166
 20
-21.251340464911
 30
0.0
 10
174.985345141929
 20
-21.16565303434975
 30
0.0
 10
174.5297258191281
 20
-21.02725624106252
 30
0.0
 10
173.9122022920582
 20
-20.85416926007263
 30
0.0
 10
173.1377617429048
 20
-20.66078772775357
 30
0.0
 10
172.2117035404272
 20
-20.46540420803186
 30
0.0
 10
171.1677156980724
 20
-20.29371716673728
 30
0.0
 10
170.0271185472124
 20
-20.16631634814848
 30
0.0
 10
168.8631372243526
 20
-20.10278134710661
 30
0.0
 10
167.6919134185611
 20
-20.10691799065115
 30
0.0
 10
166.5767345914533
 20
-20.17374487482544
 30
0.0
 10
165.5086553466374
 20
-20.29495677016404
 30
0.0
 10
164.5185173975919
 20
-20.45598118285168
 30
0.0
 10
163.6094111605192
 20
-20.64451560204812
 30
0.0
 10
162.8146263767672
 20
-20.84045955893086
 30
0.0
 10
162.1563824873997
 20
-21.0241234731062
 30
0.0
 10
161.6872496255799
 20
-21.16667896252778
 30
0.0
 10
161.3927589903562
 20
-21.26087933983772
 30
0.0
 10
161.3565181154916
 20
-21.27275203884305
 30
0.0
 10
161.3381372123319
 20
-21.27877371827204
 30
0.0
  0
LINE
  5
F5
330
1F
100
AcDbEntity
  8
0
  6
Continuous
 62
     7
370
    25
100
AcDbLine
 10
178.3381372123
 20
21.7212262817
 30
0.0
 11
178.3381372123
 21
-21.2787737183
 31
0.0
  0
LINE
  5
F6
330
1F
100
AcDbEntity
  8
0
  6
Continuous
 62
     7
370
    25
100
AcDbLine
 10
161.3381372123
 20
-36.2787737183
 30
0.0
 11
175.3381372123
 21
-36.2787737183
 31
0.0
  0
LINE
  5
F7
330
1F
100
AcDbEntity
  8
0
  6
Continuous
 62
     7
370
    25
100
AcDbLine
 10
110.3381372123
 20
-36.2787737183
 30
0.0
 11
124.3381372123
 21
-36.2787737183
 31
0.0
  0
LINE
  5
F8
330
1F
100
AcDbEntity
  8
0
  6
Continuous
 62
     1
370
    25
100
AcDbLine
 10
147.3381372123
 20
21.7212262817
 30
0.0
 11
147.3381372123
 21
-21.2787737183
 31
0.0
  0
INSERT
  5
104
330
1F
100
AcDbEntity
  8
FORMAT
 62
     7
100
AcDbBlockReference
  2
SW_CENTERMARKSYMBOL_3
 10
117.3381372123
 20
0.2212262817
 30
0.0
  0
LINE
  5
105
330
1F
100
AcDbEntity
  8
0
  6
Continuous
 62
     7
370
    25
100
AcDbLine
 10
273.0413547366
 20
58.0317311839
 30
0.0
 11
262.218234828
 21
51.7836770543
 31
0.0
  0
LINE
  5
106
330
1F
100
AcDbEntity
  8
0
  6
Continuous
 62
     7
370
    25
100
AcDbLine
 10
272.6192972714
 20
8.1373043683
 30
0.0
 11
294.5396074882
 21
20.7916301016
 31
0.0
  0
LINE
  5
107
330
1F
100
AcDbEntity
  8
0
  6
Continuous
 62
     7
370
    25
100
AcDbLine
 10
219.15696746
 20
-22.8033471919
 30
0.0
 11
219.15696746
 21
-35.2977562929
 31
0.0
  0
LINE
  5
108
330
1F
100
AcDbEntity
  8
0
  6
Continuous
 62
     7
370
    25
100
AcDbLine
 10
262.15696746
 20
-35.2977562929
 30
0.0
 11
262.15696746
 21
-9.9849911244
 31
0.0
  0
LINE
  5
109
330
1F
100
AcDbEntity
  8
0
  6
Continuous
 62
     7
370
    25
100
AcDbLine
 10
265.4251355645
 20
49.9323726652
 30
0.0
 11
254.4097313514
 21
56.2914301611
 31
0.0
  0
LINE
  5
10A
330
1F
100
AcDbEntity
  8
0
  6
Continuous
 62
     7
370
    25
100
AcDbLine
 10
247.410300223
 20
44.1667460877
 30
0.0
 11
258.4256904069
 21
37.8076966907
 31
0.0
  0
LINE
  5
10B
330
1F
100
AcDbEntity
  8
0
  6
Continuous
 62
     7
370
    25
100
AcDbLine
 10
229.3625552011
 20
-12.529537934
 30
0.0
 11
218.3472855109
 21
-6.1705580966
 31
0.0
  0
LINE
  5
10C
330
1F
100
AcDbEntity
  8
0
  6
Continuous
 62
     7
370
    25
100
AcDbLine
 10
211.3478543825
 20
-18.2952421699
 30
0.0
 11
222.3631375726
 21
-24.6542298007
 31
0.0
  0
SPLINE
  5
10D
330
1F
100
AcDbEntity
  8
0
  6
Continuous
 62
     7
370
    25
100
AcDbSpline
210
0.0
220
0.0
230
1.0
 70
     8
 71
     3
 72
    38
 73
    34
 74
     0
 42
0.00000001
 43
0.00000001
 40
0.0
 40
0.0
 40
0.0
 40
0.0
 40
0.0179199720407547
 40
0.0491457810724006
 40
0.0803735994902393
 40
0.1117775338898818
 40
0.1434473977263136
 40
0.1754484035235954
 40
0.2078225773396192
 40
0.2405908873092398
 40
0.2737556402853364
 40
0.3073030308025123
 40
0.3412057168442399
 40
0.3754253108692981
 40
0.4099147036937276
 40
0.4446201751964712
 40
0.4794832822971872
 40
0.5144425464407653
 40
0.549434987620464
 40
0.5843781909340496
 40
0.6192090785093294
 40
0.6538698566016888
 40
0.688307862544391
 40
0.7224774469581959
 40
0.7563421175041278
 40
0.7898769529696139
 40
0.8230712565134778
 40
0.8559313667987007
 40
0.8884834932771227
 40
0.9207763972893893
 40
0.952883716651759
 40
0.9849057389049801
 40
0.9999999999999999
 40
0.9999999999999999
 40
0.9999999999999999
 40
0.9999999999999999
 10
262.1569674600144
 20
-9.98499112441176
 30
0.0
 10
262.1573410092994
 20
-9.929505301483589
 30
0.0
 10
262.1583654735863
 20
-9.777334634026753
 30
0.0
 10
262.1713833008628
 20
-9.470027682304545
 30
0.0
 10
262.2055077494825
 20
-9.047379130318962
 30
0.0
 10
262.2637888287651
 20
-8.558815757320367
 30
0.0
 10
262.3500479404998
 20
-8.009020698180404
 30
0.0
 10
262.4678246063627
 20
-7.401791303151941
 30
0.0
 10
262.6200201599058
 20
-6.741991283584026
 30
0.0
 10
262.8089374761
 20
-6.034967315000094
 30
0.0
 10
263.0362100806969
 20
-5.286679263842317
 30
0.0
 10
263.302771511418
 20
-4.503597045848388
 30
0.0
 10
263.6088285986229
 20
-3.692630222668229
 30
0.0
 10
263.9538505788565
 20
-2.861027035069584
 30
0.0
 10
264.3365705952972
 20
-2.01626899091543
 30
0.0
 10
264.7549988898423
 20
-1.16596124518917
 30
0.0
 10
265.206445623822
 20
-0.3177239706363645
 30
0.0
 10
265.6875516115293
 20
0.5209134789287877
 30
0.0
 10
266.1942323214156
 20
1.342463310954519
 30
0.0
 10
266.7217895973981
 20
2.139738044163783
 30
0.0
 10
267.2649839376376
 20
2.905981296678841
 30
0.0
 10
267.8182131547459
 20
3.635101379327943
 30
0.0
 10
268.375499003531
 20
4.321621657773033
 30
0.0
 10
268.9305549660524
 20
4.960752463547995
 30
0.0
 10
269.4768709929793
 20
5.548471548654334
 30
0.0
 10
270.0078090873426
 20
6.081599301579106
 30
0.0
 10
270.5166931278605
 20
6.557853317142403
 30
0.0
 10
270.9969404509011
 20
6.97591915672995
 30
0.0
 10
271.4420370710489
 20
7.335379766646788
 30
0.0
 10
271.8460528547442
 20
7.637063659336069
 30
0.0
 10
272.202088380728
 20
7.881734230818071
 30
0.0
 10
272.4542494422897
 20
8.04074900482218
 30
0.0
 10
272.5792514070571
 20
8.113876959350074
 30
0.0
 10
272.6192972714484
 20
8.137304368316746
 30
0.0
  0
SPLINE
  5
10E
330
1F
100
AcDbEntity
  8
0
  6
Continuous
 62
     7
370
    25
100
AcDbSpline
210
0.0
220
0.0
230
1.0
 70
     8
 71
     3
 72
    37
 73
    33
 74
     0
 42
0.00000001
 43
0.00000001
 40
0.0
 40
0.0
 40
0.0
 40
0.0
 40
0.0304283626767266
 40
0.0642172979326413
 40
0.0980502783833582
 40
0.1318746821433484
 40
0.1656588881375938
 40
0.1993803687196915
 40
0.23302509991367
 40
0.2665865026499485
 40
0.3000642216024942
 40
0.3334629183686325
 40
0.3667911816784946
 40
0.4000605995534789
 40
0.433284999805284
 40
0.4664798428362472
 40
0.4996617394871735
 40
0.5328480621986618
 40
0.5660537029999524
 40
0.599293601301703
 40
0.6325856493062723
 40
0.6659473345492696
 40
0.69939535090285
 40
0.7329451122870718
 40
0.7666101309303517
 40
0.8004012235129114
 40
0.8343255152289137
 40
0.8683852289558839
 40
0.9025762805938048
 40
0.9368867585930309
 40
0.971295448582554
 40
1.0
 40
1.0
 40
1.0
 40
1.0
 10
248.326710775023
 20
43.63771353682706
 30
0.0
 10
247.8419256377347
 20
43.30961576179357
 30
0.0
 10
246.8188146696781
 20
42.61718440115134
 30
0.0
 10
245.294241696655
 20
41.48085361151077
 30
0.0
 10
243.7459065451088
 20
40.24929976755624
 30
0.0
 10
242.2311835933795
 20
38.95655115564865
 30
0.0
 10
240.7518258504993
 20
37.60828208121288
 30
0.0
 10
239.3101662268027
 20
36.20732105605344
 30
0.0
 10
237.9078738308407
 20
34.75699281581048
 30
0.0
 10
236.5464183768541
 20
33.26022919983163
 30
0.0
 10
235.227034388312
 20
31.71980181882095
 30
0.0
 10
233.9508138860065
 20
30.13827354017583
 30
0.0
 10
232.7187537709735
 20
28.51803524479763
 30
0.0
 10
231.5318024113043
 20
26.8613238394776
 30
0.0
 10
230.3908940235051
 20
25.17024531737715
 30
0.0
 10
229.2969756468017
 20
23.44679434596198
 30
0.0
 10
228.2510276835546
 20
21.69287185336988
 30
0.0
 10
227.2541091829857
 20
19.91035251073704
 30
0.0
 10
226.307363702799
 20
18.10110441430642
 30
0.0
 10
225.4119935039089
 20
16.26694793807498
 30
0.0
 10
224.5692464472697
 20
14.40961116868419
 30
0.0
 10
223.7804340311069
 20
12.53073877139726
 30
0.0
 10
223.0469709437347
 20
10.63196716393429
 30
0.0
 10
222.3703875962946
 20
8.714950840938412
 30
0.0
 10
221.7523345095513
 20
6.781396157008913
 30
0.0
 10
221.1946115277777
 20
4.833107995079943
 30
0.0
 10
220.699090406105
 20
2.87203873965106
 30
0.0
 10
220.2680121385636
 20
0.9003863386228038
 30
0.0
 10
219.902835284442
 20
-1.07943317999792
 30
0.0
 10
219.6084588119466
 20
-3.06429339776491
 30
0.0
 10
219.3901323396719
 20
-4.94065165439578
 30
0.0
 10
219.3063091526708
 20
-6.151483547001682
 30
0.0
 10
219.2681855049607
 20
-6.702182347195963
 30
0.0
  0
LWPOLYLINE
  5
10F
330
1F
100
AcDbEntity
  8
0
  6
Continuous
 62
     7
370
    25
100
AcDbPolyline
 90
       98
 70
   128
 43
0.0
 10
268.5876853169
 20
48.1880678448
 10
268.6195682213
 20
47.0332896592
 10
268.7150832067
 20
45.8465437967
 10
268.87382965
 20
44.6328078818
 10
269.0951417134
 20
43.3971727449
 10
269.3780911372
 20
42.144821069
 10
269.7214911333
 20
40.8810056523
 10
270.1239013627
 20
39.6110273759
 10
270.5836339769
 20
38.34021297
 10
271.0987606978
 20
37.0738926719
 10
271.6671209048
 20
35.817377869
 10
272.2863306977
 20
34.575938821
 10
272.9537928953
 20
33.3547825547
 10
273.6667079294
 20
32.159031024
 10
274.4220855865
 20
30.9936996263
 10
275.2167575501
 20
29.8636761663
 10
276.04739069
 20
28.7737003554
 10
276.910501042
 20
27.7283439307
 10
277.8024684213
 20
26.7319914804
 10
278.7195516069
 20
25.788822053
 10
279.6579040331
 20
24.9027916288
 10
280.6135899237
 20
24.0776165273
 10
281.5826008001
 20
23.3167578196
 10
282.5608722937
 20
22.6234068117
 10
283.5443011941
 20
22.0004716585
 10
284.5287626586
 20
21.4505651667
 10
285.5101275137
 20
20.9759938351
 10
286.4842795742
 20
20.5787481808
 10
287.4471329078
 20
20.2604943902
 10
288.3946489729
 20
20.0225673302
 10
289.322853558
 20
19.8659649496
 10
290.2278534505
 20
19.7913440933
 10
291.1058527662
 20
19.799017747
 10
291.9531688709
 20
19.8889537248
 10
292.7662478264
 20
20.0607748039
 10
293.541679297
 20
20.313760307
 10
294.2762108537
 20
20.646849125
 10
294.9667616157
 20
21.0586441676
 10
295.6104351733
 20
21.5474182233
 10
296.2045317359
 20
22.1111212039
 10
296.7465594559
 20
22.7473887432
 10
297.2342448809
 20
23.4535521139
 10
297.6655424885
 20
24.2266494215
 10
298.0386432668
 20
25.0634380272
 10
298.3519823014
 20
25.9604081488
 10
298.6042453396
 20
26.9137975819
 10
298.7943743025
 20
27.9196074799
 10
298.921571723
 20
28.9736191265
 10
298.9853040912
 20
30.0714116306
 10
298.9853040912
 20
31.2083804689
 10
298.921571723
 20
32.379756799
 10
298.7943743025
 20
33.5806274614
 10
298.6042453396
 20
34.8059555874
 10
298.3519823014
 20
36.0506017248
 10
298.0386432668
 20
37.3093453952
 10
297.6655424885
 20
38.5769069903
 10
297.2342448809
 20
39.8479699162
 10
296.7465594559
 20
41.1172028933
 10
296.2045317359
 20
42.3792823173
 10
295.6104351733
 20
43.6289145886
 10
294.9667616157
 20
44.8608583151
 10
294.2762108537
 20
46.0699462967
 10
293.541679297
 20
47.2511071983
 10
292.7662478264
 20
48.3993868205
 10
291.9531688709
 20
49.5099688796
 10
291.1058527662
 20
50.5781952084
 10
290.2278534505
 20
51.5995852944
 10
289.322853558
 20
52.5698550728
 10
288.3946489729
 20
53.4849348948
 10
287.4471329078
 20
54.3409865977
 10
286.4842795742
 20
55.1344196031
 10
285.5101275137
 20
55.8619059772
 10
284.5287626586
 20
56.5203943895
 10
283.5443011941
 20
57.1071229106
 10
282.5608722937
 20
57.6196305972
 10
281.5826008001
 20
58.055767814
 10
280.6135899237
 20
58.4137052499
 10
279.6579040331
 20
58.691941591
 10
278.7195516069
 20
58.8893098173
 10
277.8024684213
 20
59.0049820978
 10
276.910501042
 20
59.0384732629
 10
276.04739069
 20
58.989642839
 10
275.2167575501
 20
58.8586956378
 10
274.4220855865
 20
58.6461808974
 10
273.6667079294
 20
58.3529899784
 10
272.9537928953
 20
57.9803526256
 10
272.2863306977
 20
57.5298318093
 10
271.6671209048
 20
57.0033171706
 10
271.0987606978
 20
56.4030170948
 10
270.5836339769
 20
55.7314494489
 10
270.1239013627
 20
54.9914310212
 10
269.7214911333
 20
54.186065706
 10
269.3780911372
 20
53.3187314854
 10
269.0951417134
 20
52.3930662606
 10
268.87382965
 20
51.4129525931
 10
268.7150832067
 20
50.3825014203
 10
268.6195682213
 20
49.3060348125
 10
268.5876853169
 20
48.1880678448
  0
LWPOLYLINE
  5
110
330
1F
100
AcDbEntity
  8
0
  6
Continuous
 62
     7
370
    25
100
AcDbPolyline
 90
       67
 70
   128
 43
0.0
 10
276.7194133005
 20
43.4937212019
 10
276.7514316431
 20
44.2514087939
 10
276.8471967076
 20
44.9652670583
 10
277.005841231
 20
45.6288311842
 10
277.2259285037
 20
46.236091832
 10
277.5054653814
 20
46.7815495553
 10
277.8419203348
 20
47.2602646045
 10
278.2322463757
 20
47.6679016619
 10
278.6729086512
 20
48.0007691033
 10
279.1599164553
 20
48.2558524295
 10
279.6888593701
 20
48.4308415665
 10
280.2549472065
 20
48.5241517855
 10
280.8530533854
 20
48.5349380547
 10
281.4777613647
 20
48.4631026921
 10
282.1234136922
 20
48.3092962497
 10
282.7841632403
 20
48.0749116225
 10
283.454026159
 20
47.7620714341
 10
284.1269360658
 20
47.3736088135
 10
284.7967989845
 20
46.9130417385
 10
285.4575485326
 20
46.3845411758
 10
286.1032008601
 20
45.7928933084
 10
286.7279088394
 20
45.1434561909
 10
287.3260150183
 20
44.4421112264
 10
287.8921028547
 20
43.6952099036
 10
288.4210457694
 20
42.9095162765
 10
288.9080535736
 20
42.0921457082
 10
289.348715849
 20
41.2505004332
 10
289.73904189
 20
40.3922025215
 10
290.0754968434
 20
39.5250248518
 10
290.3550337211
 20
38.6568207193
 10
290.5751209938
 20
37.7954527153
 10
290.7337655172
 20
36.9487215216
 10
290.8295305817
 20
36.1242952671
 10
290.8615489243
 20
35.3296400836
 10
290.8295305817
 20
34.5719524916
 10
290.7337655172
 20
33.8580942272
 10
290.5751209938
 20
33.1945301013
 10
290.3550337211
 20
32.5872694535
 10
290.0754968434
 20
32.0418117302
 10
289.73904189
 20
31.563096681
 10
289.348715849
 20
31.1554596236
 10
288.9080535736
 20
30.8225921822
 10
288.4210457694
 20
30.567508856
 10
287.8921028547
 20
30.392519719
 10
287.3260150183
 20
30.2992095
 10
286.7279088394
 20
30.2884232308
 10
286.1032008601
 20
30.3602585934
 10
285.4575485326
 20
30.5140650358
 10
284.7967989845
 20
30.748449663
 10
284.1269360658
 20
31.0612898515
 10
283.454026159
 20
31.449752472
 10
282.7841632403
 20
31.910319547
 10
282.1234136922
 20
32.4388201097
 10
281.4777613647
 20
33.0304679771
 10
280.8530533854
 20
33.6799050947
 10
280.2549472065
 20
34.3812500591
 10
279.6888593701
 20
35.1281513819
 10
279.1599164553
 20
35.913845009
 10
278.6729086512
 20
36.7312155773
 10
278.2322463757
 20
37.5728608523
 10
277.8419203348
 20
38.431158764
 10
277.5054653814
 20
39.2983364338
 10
277.2259285037
 20
40.1665405662
 10
277.005841231
 20
41.0279085703
 10
276.8471967076
 20
41.8746397639
 10
276.7514316431
 20
42.6990660184
 10
276.7194133005
 20
43.4937212019
  0
SPLINE
  5
111
330
1F
100
AcDbEntity
  8
0
  6
Continuous
 62
     7
370
    25
100
AcDbSpline
210
0.0
220
0.0
230
1.0
 70
     8
 71
     3
 72
    27
 73
    23
 74
     0
 42
0.00000001
 43
0.00000001
 40
0.0
 40
0.0
 40
0.0
 40
0.0
 40
0.0096716535278063
 40
0.0636912711575951
 40
0.1176056326696764
 40
0.1731824754317812
 40
0.2253150043661529
 40
0.2790995463191022
 40
0.3290535547003081
 40
0.3804177989469855
 40
0.4312052325948766
 40
0.483331927366048
 40
0.5365977851166249
 40
0.5913762033287486
 40
0.645037959320543
 40
0.7003885502525358
 40
0.7518265403216898
 40
0.80484342675597
 40
0.8549464571556692
 40
0.906435587540583
 40
0.9578577113561896
 40
0.9999999999999999
 40
0.9999999999999999
 40
0.9999999999999999
 40
0.9999999999999999
 10
258.4331204597938
 20
37.81972099678387
 30
0.0
 10
258.4742535993154
 20
37.79085751176941
 30
0.0
 10
258.7451299220972
 20
37.60078121868008
 30
0.0
 10
259.3417877462527
 20
37.41272527871713
 30
0.0
 10
260.2001452020119
 20
37.2875814981723
 30
0.0
 10
261.0886502708905
 20
37.38325558282955
 30
0.0
 10
261.9684095140302
 20
37.68102873557145
 30
0.0
 10
262.7836263635824
 20
38.16074157221825
 30
0.0
 10
263.5352840938465
 20
38.80877749744429
 30
0.0
 10
264.2002860135116
 20
39.5872192679492
 30
0.0
 10
264.7910963881254
 20
40.49573422043597
 30
0.0
 10
265.2999499775934
 20
41.5079399891547
 30
0.0
 10
265.7271660629035
 20
42.61126261224458
 30
0.0
 10
266.0611410713053
 20
43.7586085708298
 30
0.0
 10
266.3009530864911
 20
44.91714982364487
 30
0.0
 10
266.4389504748731
 20
46.0114846903007
 30
0.0
 10
266.4814994735859
 20
47.02359919356534
 30
0.0
 10
266.4325256759037
 20
47.89890132034996
 30
0.0
 10
266.2956537181185
 20
48.64852436118767
 30
0.0
 10
266.0713373177383
 20
49.24615682173553
 30
0.0
 10
265.7855714188733
 20
49.68630312054303
 30
0.0
 10
265.5315377308152
 20
49.84698163053588
 30
0.0
 10
265.417118575861
 20
49.91935273797925
 30
0.0
  0
LWPOLYLINE
  5
112
330
1F
100
AcDbEntity
  8
0
  6
Continuous
 62
     7
370
    25
100
AcDbPolyline
 90
       98
 70
   128
 43
0.0
 10
225.4541716645
 20
-26.5213690908
 10
226.4701287796
 20
-25.9716807502
 10
227.5455904264
 20
-25.4611092114
 10
228.676045745
 20
-24.991795989
 10
229.8567532129
 20
-24.5657095457
 10
231.0827605327
 20
-24.1846370361
 10
232.3489254036
 20
-23.8501768107
 10
233.6499370902
 20
-23.563731712
 10
234.9803386973
 20
-23.3265031903
 10
236.3345500581
 20
-23.1394862644
 10
237.7068911397
 20
-23.0034653482
 10
239.0916058666
 20
-22.9190109609
 10
240.4828862641
 20
-22.8864773334
 10
241.8748968185
 20
-22.9060009231
 10
243.261798954
 20
-22.9774998412
 10
244.6377755209
 20
-23.1006741965
 10
245.9970551955
 20
-23.2750073529
 10
247.3339366862
 20
-23.4997680965
 10
248.6428126476
 20
-23.7740137028
 10
249.918193199
 20
-24.0965938902
 10
251.1547289511
 20
-24.4661556454
 10
252.3472334433
 20
-24.881148898
 10
253.4907048973
 20
-25.3398330221
 10
254.5803471965
 20
-25.8402841369
 10
255.6115900024
 20
-26.3804031767
 10
256.5801079242
 20
-26.9579246944
 10
257.4818386612
 20
-27.5704263642
 10
258.3130000413
 20
-28.2153391411
 10
259.0701058849
 20
-28.8899580369
 10
259.7499806269
 20
-29.5914534655
 10
260.3497726364
 20
-30.3168831111
 10
260.8669661773
 20
-31.0632042699
 10
261.29939196
 20
-31.8272866115
 10
261.6452362407
 20
-32.6059253089
 10
261.9030484282
 20
-33.395854481
 10
262.0717471685
 20
-34.1937608903
 10
262.1506248806
 20
-34.99629784
 10
262.1393507239
 20
-35.8000992111
 10
262.0379719861
 20
-36.6017935815
 10
261.8469138849
 20
-37.3980183663
 10
261.5669777844
 20
-38.1854339221
 10
261.1993378338
 20
-38.9607375544
 10
260.745536043
 20
-39.7206773703
 10
260.2074758142
 20
-40.4620659181
 10
259.5874139591
 20
-41.1817935566
 10
258.8879512325
 20
-41.876841498
 10
258.1120214243
 20
-42.5442944696
 10
257.2628790538
 20
-43.1813529418
 10
256.344085719
 20
-43.7853448699
 10
255.3594951586
 20
-44.3537369018
 10
254.3132370876
 20
-44.8841450039
 10
253.2096998758
 20
-45.3743444603
 10
252.0535121419
 20
-45.822279204
 10
250.849523339
 20
-46.2260704411
 10
249.6027834147
 20
-46.5840245307
 10
248.3185216293
 20
-46.8946400892
 10
247.0021246231
 20
-47.1566142868
 10
245.6591138227
 20
-47.3688483127
 10
244.2951222821
 20
-47.5304519837
 10
242.9158710558
 20
-47.6407474778
 10
241.5271452028
 20
-47.6992721774
 10
240.134769522
 20
-47.7057806096
 10
238.7445841207
 20
-47.6602454756
 10
237.3624199198
 20
-47.5628577658
 10
235.9940741963
 20
-47.4140259579
 10
234.6452862675
 20
-47.2143743044
 10
233.3217134189
 20
-46.9647402136
 10
232.0289071749
 20
-46.6661707377
 10
230.7722900142
 20
-46.3199181808
 10
229.5571326258
 20
-45.9274348465
 10
228.3885318023
 20
-45.4903669462
 10
227.2713890614
 20
-45.0105476947
 10
226.2103900882
 20
-44.4899896206
 10
225.2099850811
 20
-43.9308761254
 10
224.2743700862
 20
-43.3355523255
 10
223.407469398
 20
-42.7065152156
 10
222.6129190994
 20
-42.046403196
 10
221.8940518104
 20
-41.3579850061
 10
221.2538827101
 20
-40.6441481108
 10
220.6950968903
 20
-39.9078865903
 10
220.220038093
 20
-39.1522885811
 10
219.8306988797
 20
-38.380523324
 10
219.5287122746
 20
-37.5958278706
 10
219.3153449142
 20
-36.8014935064
 10
219.1914917355
 20
-36.0008519457
 10
219.1576722219
 20
-35.1972613575
 10
219.2140282239
 20
-34.39409228
 10
219.3603233651
 20
-33.5947134835
 10
219.5959440327
 20
-32.8024778403
 10
219.9199019518
 20
-32.0207082621
 10
220.3308383303
 20
-31.2526837622
 10
220.8270295582
 20
-30.5016257022
 10
221.406394437
 20
-29.7706842808
 10
222.0665029092
 20
-29.0629253201
 10
222.8045862503
 20
-28.3813174073
 10
223.6175486823
 20
-27.7287194428
 10
224.5019803583
 20
-27.1078686493
 10
225.4541716645
 20
-26.5213690908
  0
LWPOLYLINE
  5
113
330
1F
100
AcDbEntity
  8
0
  6
Continuous
 62
     7
370
    25
100
AcDbPolyline
 90
       67
 70
   128
 43
0.0
 10
233.5858996481
 20
-31.2157157338
 10
232.9457702626
 20
-31.6222221536
 10
232.3754746729
 20
-32.0620147798
 10
231.8801775643
 20
-32.5311107822
 10
231.4643644242
 20
-33.0252619548
 10
231.1318009207
 20
-33.539993188
 10
230.8854988003
 20
-34.0706429961
 10
230.7276886133
 20
-34.6124057322
 10
230.6597995131
 20
-35.1603751092
 10
230.6824463139
 20
-35.7095886314
 10
230.7954239228
 20
-36.2550725362
 10
230.9977091971
 20
-36.7918868368
 10
231.28747021
 20
-37.3151700598
 10
231.6620828409
 20
-37.8201832714
 10
232.1181545398
 20
-38.3023529937
 10
232.6515550508
 20
-38.7573126229
 10
233.2574538162
 20
-39.1809419743
 10
233.930363723
 20
-39.5694045949
 10
234.6641907949
 20
-39.9191825069
 10
235.4522893803
 20
-40.2271080675
 10
236.2875223363
 20
-40.4903926551
 10
237.162325664
 20
-40.7066519237
 10
238.068777009
 20
-40.8739273959
 10
238.9986674075
 20
-40.9907041991
 10
239.943575628
 20
-41.0559247845
 10
240.8949444355
 20
-41.0689985043
 10
241.8441580866
 20
-41.029806961
 10
242.7826203555
 20
-40.9387050792
 10
243.7018323827
 20
-40.7965178916
 10
244.5934696416
 20
-40.6045330675
 10
245.4494573272
 20
-40.3644892512
 10
246.2620434824
 20
-40.0785603166
 10
247.0238692012
 20
-39.7493356804
 10
247.7280352719
 20
-39.379796852
 10
248.3681646575
 20
-38.9732904321
 10
248.9384602471
 20
-38.5334978059
 10
249.4337573557
 20
-38.0644018035
 10
249.8495704958
 20
-37.5702506309
 10
250.1821339994
 20
-37.0555193977
 10
250.4284361197
 20
-36.5248695896
 10
250.5862463067
 20
-35.9831068535
 10
250.6541354069
 20
-35.4351374766
 10
250.6314886061
 20
-34.8859239544
 10
250.5185109972
 20
-34.3404400496
 10
250.3162257229
 20
-33.803625749
 10
250.02646471
 20
-33.2803425259
 10
249.6518520791
 20
-32.7753293143
 10
249.1957803802
 20
-32.2931595921
 10
248.6623798693
 20
-31.8381999628
 10
248.0564811038
 20
-31.4145706114
 10
247.383571197
 20
-31.0261079909
 10
246.6497441251
 20
-30.6763300788
 10
245.8616455397
 20
-30.3684045182
 10
245.0264125837
 20
-30.1051199306
 10
244.151609256
 20
-29.888860662
 10
243.245157911
 20
-29.7215851898
 10
242.3152675126
 20
-29.6048083867
 10
241.370359292
 20
-29.5395878013
 10
240.4189904846
 20
-29.5265140815
 10
239.4697768334
 20
-29.5657056248
 10
238.5313145645
 20
-29.6568075066
 10
237.6121025373
 20
-29.7989946941
 10
236.7204652784
 20
-29.9909795182
 10
235.8644775928
 20
-30.2310233345
 10
235.0518914376
 20
-30.5169522691
 10
234.2900657188
 20
-30.8461769053
 10
233.5858996481
 20
-31.2157157338
  0
SPLINE
  5
114
330
1F
100
AcDbEntity
  8
0
  6
Continuous
 62
     7
370
    25
100
AcDbSpline
210
0.0
220
0.0
230
1.0
 70
     8
 71
     3
 72
    22
 73
    18
 74
     0
 42
0.00000001
 43
0.00000001
 40
0.0
 40
0.0
 40
0.0
 40
0.0
 40
0.06806161478736
 40
0.1381584390795481
 40
0.2062038053875091
 40
0.2761159136976087
 40
0.3462119142846081
 40
0.418232008865042
 40
0.490111773767387
 40
0.5642079937673125
 40
0.6337121818624947
 40
0.7054188685881089
 40
0.7720186070931497
 40
0.8404985018241762
 40
0.9082093804884043
 40
0.9777057903540484
 40
1.0
 40
1.0
 40
1.0
 40
1.0
 10
225.4541716645036
 20
-24.07174665511864
 30
0.0
 10
225.7247088687859
 20
-23.90587302899435
 30
0.0
 10
226.2738730044499
 20
-23.5691657477846
 30
0.0
 10
227.122813813945
 20
-22.9194958401589
 30
0.0
 10
227.9647265394842
 20
-22.17647096699369
 30
0.0
 10
228.7677441609978
 20
-21.3505800455669
 30
0.0
 10
229.5152131709866
 20
-20.44301977051951
 30
0.0
 10
230.1683306238399
 20
-19.47454202262577
 30
0.0
 10
230.6993804787078
 20
-18.45206285291236
 30
0.0
 10
231.0624857963726
 20
-17.42572911299922
 30
0.0
 10
231.2439598883121
 20
-16.41160492294523
 30
0.0
 10
231.2363003807951
 20
-15.470041740708
 30
0.0
 10
231.0504914664989
 20
-14.6005083169004
 30
0.0
 10
230.7101479068746
 20
-13.83292334154632
 30
0.0
 10
230.2137493763281
 20
-13.17979383685141
 30
0.0
 10
229.7518197463151
 20
-12.74343818605702
 30
0.0
 10
229.4305118346667
 20
-12.58598846133403
 30
0.0
 10
229.3524722051129
 20
-12.54774689383672
 30
0.0
  0
SPLINE
  5
115
330
1F
100
AcDbEntity
  8
0
  6
Continuous
 62
     7
370
    25
100
AcDbSpline
210
0.0
220
0.0
230
1.0
 70
     8
 71
     3
 72
    12
 73
     8
 74
     0
 42
0.00000001
 43
0.00000001
 40
0.0
 40
0.0
 40
0.0
 40
0.0
 40
0.1507146406294869
 40
0.3663554093123951
 40
0.5885071584804774
 40
0.791296151124566
 40
1.0
 40
1.0
 40
1.0
 40
1.0
 10
222.3729364172248
 20
-24.63645729996321
 30
0.0
 10
222.4782730097845
 20
-24.69578107396156
 30
0.0
 10
222.7343239834763
 20
-24.83998461924653
 30
0.0
 10
223.2620892240396
 20
-24.8743534369573
 30
0.0
 10
223.9215502115318
 20
-24.76359986994309
 30
0.0
 10
224.6578154141952
 20
-24.50132260679009
 30
0.0
 10
225.1861879472581
 20
-24.21630427028596
 30
0.0
 10
225.4541716645036
 20
-24.07174665511864
 30
0.0
  0
LWPOLYLINE
  5
116
330
1F
100
AcDbEntity
  8
0
  6
Continuous
 62
     7
370
    25
100
AcDbPolyline
 90
       56
 70
   128
 43
0.0
 10
245.9602683189
 20
47.371659733
 10
245.9925320829
 20
48.0418356762
 10
246.0889027672
 20
48.7405257999
 10
246.2481240328
 20
49.4586216101
 10
246.4681201867
 20
50.1867616295
 10
246.7460232429
 20
50.9154534395
 10
247.0782103098
 20
51.635197428
 10
247.4603508212
 20
52.3366106313
 10
247.887462991
 20
53.0105490557
 10
248.3539787588
 20
53.6482268832
 10
248.8538163783
 20
54.2413310081
 10
249.3804597016
 20
54.782129411
 10
249.9270431277
 20
55.2635719578
 10
250.4864411057
 20
55.6793823086
 10
251.0513610273
 20
56.0241397395
 10
251.6144382977
 20
56.2933498102
 10
252.1683323433
 20
56.4835029558
 10
252.7058223083
 20
56.5921202391
 10
253.2199011889
 20
56.6177856679
 10
253.7038671808
 20
56.5601646539
 10
254.1514110472
 20
56.4200083752
 10
254.5566983692
 20
56.1991439832
 10
254.9144456069
 20
55.9004507831
 10
255.219988978
 20
55.5278226975
 10
255.4693452572
 20
55.0861175034
 10
255.6592637042
 20
54.5810935034
 10
255.7872684416
 20
54.0193344578
 10
255.8516907318
 20
53.4081637548
 10
255.8516907318
 20
52.7555489392
 10
255.7872684416
 20
52.0699978432
 10
255.6592637042
 20
51.3604476737
 10
255.4693452572
 20
50.6361485022
 10
255.219988978
 20
49.9065426762
 10
254.9144456069
 20
49.1811417234
 10
254.5566983692
 20
48.4694023545
 10
254.1514110472
 20
47.7806031808
 10
253.7038671808
 20
47.1237237528
 10
253.2199011889
 20
46.5073274984
 10
252.7058223083
 20
45.9394500854
 10
252.1683323433
 20
45.4274946645
 10
251.6144382977
 20
44.9781353574
 10
251.0513610273
 20
44.5972302499
 10
250.4864411057
 20
44.2897450226
 10
249.9270431277
 20
44.0596882157
 10
249.3804597016
 20
43.9100589715
 10
248.8538163783
 20
43.842807936
 10
248.3539787588
 20
43.8588118293
 10
247.887462991
 20
43.9578620163
 10
247.4603508212
 20
44.1386672261
 10
247.0782103098
 20
44.3988703864
 10
246.7460232429
 20
44.7350793512
 10
246.4681201867
 20
45.1429111223
 10
246.2481240328
 20
45.6170489889
 10
246.0889027672
 20
46.1513118388
 10
245.9925320829
 20
46.7387347388
 10
245.9602683189
 20
47.371659733
  0
LWPOLYLINE
  5
117
330
1F
100
AcDbEntity
  8
0
  6
Continuous
 62
     7
370
    25
100
AcDbPolyline
 90
       48
 70
   128
 43
0.0
 10
247.3744818813
 20
48.1880678448
 10
247.4060277244
 20
48.7504500662
 10
247.5001023176
 20
49.3392186188
 10
247.6550268974
 20
49.9438669138
 10
247.868036831
 20
50.553604988
 10
248.1353309512
 20
51.1575520512
 10
248.452139388
 20
51.7449306535
 10
248.8128086874
 20
52.30525901
 10
249.2109026972
 20
52.8285380479
 10
249.6393174203
 20
53.3054298403
 10
250.0904077859
 20
53.7274242419
 10
250.5561240756
 20
54.0869907526
 10
251.0281555714
 20
54.3777128995
 10
251.4980788599
 20
54.594402739
 10
251.9575081489
 20
54.7331934358
 10
252.398244912
 20
54.7916082667
 10
252.812424191
 20
54.7686048175
 10
253.192654947
 20
54.6645935853
 10
253.5321519531
 20
54.4814306531
 10
253.8248568773
 20
54.2223845678
 10
254.0655463931
 20
53.8920780128
 10
254.2499253905
 20
53.4964053165
 10
254.3747036219
 20
53.0424272675
 10
254.4376544168
 20
52.5382451149
 10
254.4376544168
 20
51.992856001
 10
254.3747036219
 20
51.4159924076
 10
254.2499253905
 20
50.8179484792
 10
254.0655463931
 20
50.2093963237
 10
253.8248568773
 20
49.6011955689
 10
253.5321519531
 20
49.0041995717
 10
253.192654947
 20
48.4290617396
 10
252.812424191
 20
47.8860454211
 10
252.398244912
 20
47.3848407551
 10
251.9575081489
 20
46.9343917508
 10
251.4980788599
 20
46.5427366813
 10
251.0281555714
 20
46.2168646407
 10
250.5561240756
 20
45.9625908232
 10
250.0904077859
 20
45.7844527511
 10
249.6393174203
 20
45.6856293025
 10
249.2109026972
 20
45.6678839843
 10
248.8128086874
 20
45.731533462
 10
248.452139388
 20
45.8754419091
 10
248.1353309512
 20
46.0970412762
 10
247.868036831
 20
46.3923771171
 10
247.6550268974
 20
46.7561791569
 10
247.5001023176
 20
47.1819553394
 10
247.4060277244
 20
47.6621076787
 10
247.3744818813
 20
48.1880678448
  0
LWPOLYLINE
  5
118
330
1F
100
AcDbEntity
  8
0
  6
Continuous
 62
     7
370
    25
100
AcDbPolyline
 90
       56
 70
   128
 43
0.0
 10
209.8978224784
 20
-15.0903285246
 10
209.9300862424
 20
-14.4201525815
 10
210.0264569267
 20
-13.7214624577
 10
210.1856781922
 20
-13.0033666476
 10
210.4056743462
 20
-12.2752266282
 10
210.6835774024
 20
-11.5465348181
 10
211.0157644693
 20
-10.8267908297
 10
211.3979049807
 20
-10.1253776263
 10
211.8250171505
 20
-9.4514392019
 10
212.2915329183
 20
-8.8137613744
 10
212.7913705378
 20
-8.2206572496
 10
213.3180138611
 20
-7.6798588466
 10
213.8645972872
 20
-7.1984162999
 10
214.4239952651
 20
-6.7826059491
 10
214.9889151868
 20
-6.4378485182
 10
215.5519924572
 20
-6.1686384474
 10
216.1058865028
 20
-5.9784853019
 10
216.6433764677
 20
-5.8698680185
 10
217.1574553484
 20
-5.8442025898
 10
217.6414213403
 20
-5.9018236038
 10
218.0889652066
 20
-6.0419798825
 10
218.4942525287
 20
-6.2628442745
 10
218.8519997664
 20
-6.5615374746
 10
219.1575431375
 20
-6.9341655602
 10
219.4068994167
 20
-7.3758707543
 10
219.5968178637
 20
-7.8808947542
 10
219.7248226011
 20
-8.4426537998
 10
219.7892448913
 20
-9.0538245028
 10
219.7892448913
 20
-9.7064393184
 10
219.7248226011
 20
-10.3919904145
 10
219.5968178637
 20
-11.101540584
 10
219.4068994167
 20
-11.8258397555
 10
219.1575431375
 20
-12.5554455815
 10
218.8519997664
 20
-13.2808465343
 10
218.4942525287
 20
-13.9925859031
 10
218.0889652066
 20
-14.6813850769
 10
217.6414213403
 20
-15.3382645049
 10
217.1574553484
 20
-15.9546607593
 10
216.6433764677
 20
-16.5225381722
 10
216.1058865028
 20
-17.0344935932
 10
215.5519924572
 20
-17.4838529003
 10
214.9889151868
 20
-17.8647580078
 10
214.4239952651
 20
-18.1722432351
 10
213.8645972872
 20
-18.4023000419
 10
213.3180138611
 20
-18.5519292861
 10
212.7913705378
 20
-18.6191803216
 10
212.2915329183
 20
-18.6031764283
 10
211.8250171505
 20
-18.5041262414
 10
211.3979049807
 20
-18.3233210316
 10
211.0157644693
 20
-18.0631178712
 10
210.6835774024
 20
-17.7269089065
 10
210.4056743462
 20
-17.3190771354
 10
210.1856781922
 20
-16.8449392688
 10
210.0264569267
 20
-16.3106764188
 10
209.9300862424
 20
-15.7232535188
 10
209.8978224784
 20
-15.0903285246
  0
LWPOLYLINE
  5
119
330
1F
100
AcDbEntity
  8
0
  6
Continuous
 62
     7
370
    25
100
AcDbPolyline
 90
       48
 70
   128
 43
0.0
 10
211.3120360408
 20
-14.2739204128
 10
211.3435818839
 20
-13.7115381914
 10
211.4376564771
 20
-13.1227696388
 10
211.5925810569
 20
-12.5181213439
 10
211.8055909905
 20
-11.9083832696
 10
212.0728851107
 20
-11.3044362065
 10
212.3896935475
 20
-10.7170576041
 10
212.7503628469
 20
-10.1567292476
 10
213.1484568567
 20
-9.6334502098
 10
213.5768715798
 20
-9.1565584174
 10
214.0279619454
 20
-8.7345640158
 10
214.4936782351
 20
-8.374997505
 10
214.9657097309
 20
-8.0842753581
 10
215.4356330194
 20
-7.8675855186
 10
215.8950623084
 20
-7.7287948218
 10
216.3357990715
 20
-7.670379991
 10
216.7499783505
 20
-7.6933834402
 10
217.1302091065
 20
-7.7973946723
 10
217.4697061126
 20
-7.9805576045
 10
217.7624110368
 20
-8.2396036898
 10
218.0031005526
 20
-8.5699102448
 10
218.18747955
 20
-8.9655829411
 10
218.3122577814
 20
-9.4195609901
 10
218.3752085763
 20
-9.9237431428
 10
218.3752085763
 20
-10.4691322566
 10
218.3122577814
 20
-11.04599585
 10
218.18747955
 20
-11.6440397785
 10
218.0031005526
 20
-12.2525919339
 10
217.7624110368
 20
-12.8607926887
 10
217.4697061126
 20
-13.457788686
 10
217.1302091065
 20
-14.032926518
 10
216.7499783505
 20
-14.5759428365
 10
216.3357990715
 20
-15.0771475025
 10
215.8950623084
 20
-15.5275965068
 10
215.4356330194
 20
-15.9192515763
 10
214.9657097309
 20
-16.2451236169
 10
214.4936782351
 20
-16.4993974345
 10
214.0279619454
 20
-16.6775355066
 10
213.5768715798
 20
-16.7763589551
 10
213.1484568567
 20
-16.7941042734
 10
212.7503628469
 20
-16.7304547957
 10
212.3896935475
 20
-16.5865463485
 10
212.0728851107
 20
-16.3649469815
 10
211.8055909905
 20
-16.0696111405
 10
211.5925810569
 20
-15.7058091008
 10
211.4376564771
 20
-15.2800329182
 10
211.3435818839
 20
-14.799880579
 10
211.3120360408
 20
-14.2739204128
  0
LWPOLYLINE
  5
11A
330
1F
100
AcDbEntity
  8
0
  6
Continuous
 62
     1
370
    25
100
AcDbPolyline
 90
       38
 70
   128
 43
0.0
 10
246.6673751001
 20
35.5337421116
 10
246.6992580046
 20
34.378963926
 10
246.7947729899
 20
33.1922180635
 10
246.9535194332
 20
31.9784821486
 10
247.1748314966
 20
30.7428470116
 10
247.4577809205
 20
29.4904953357
 10
247.8011809165
 20
28.226679919
 10
248.2035911459
 20
26.9567016426
 10
248.6633237602
 20
25.6858872367
 10
249.178450481
 20
24.4195669386
 10
249.746810688
 20
23.1630521357
 10
250.3660204809
 20
21.9216130877
 10
251.0334826786
 20
20.7004568215
 10
251.7463977126
 20
19.5047052908
 10
252.5017753697
 20
18.339373893
 10
253.2964473333
 20
17.2093504331
 10
254.1270804732
 20
16.1193746221
 10
254.9901908252
 20
15.0740181974
 10
255.8821582046
 20
14.0776657471
 10
256.7992413901
 20
13.1344963197
 10
257.7375938163
 20
12.2484658955
 10
258.693279707
 20
11.423290794
 10
259.6622905833
 20
10.6624320864
 10
260.6405620769
 20
9.9690810784
 10
261.6239909773
 20
9.3461459253
 10
262.6084524418
 20
8.7962394334
 10
263.5898172969
 20
8.3216681018
 10
264.5639693574
 20
7.9244224475
 10
265.526822691
 20
7.6061686569
 10
266.4743387561
 20
7.3682415969
 10
267.4025433412
 20
7.2116392164
 10
268.3075432337
 20
7.13701836
 10
269.1855425494
 20
7.1446920138
 10
270.0328586541
 20
7.2346279915
 10
270.8459376096
 20
7.4064490706
 10
271.6213690802
 20
7.6594345738
 10
272.3559006369
 20
7.9925233917
 10
272.6192972714
 20
8.1373043683
  0
ARC
  5
11B
330
1F
100
AcDbEntity
  8
0
  6
Continuous
 62
     1
370
    25
100
AcDbCircle
 10
259.592213163
 20
36.1255386505
 30
0.0
 40
12.93837942308578
100
AcDbArc
 50
146.1310531555
 51
182.6216017536
  0
LWPOLYLINE
  5
11C
330
1F
100
AcDbEntity
  8
0
  6
Continuous
 62
     1
370
    25
100
AcDbPolyline
 90
       38
 70
   128
 43
0.0
 10
225.4541716645
 20
-1.2086039223
 10
226.4701287796
 20
-0.6589155817
 10
227.5455904264
 20
-0.148344043
 10
228.676045745
 20
0.3209691794
 10
229.8567532129
 20
0.7470556228
 10
231.0827605327
 20
1.1281281324
 10
232.3489254036
 20
1.4625883577
 10
233.6499370902
 20
1.7490334564
 10
234.9803386973
 20
1.9862619782
 10
236.3345500581
 20
2.1732789041
 10
237.7068911397
 20
2.3092998202
 10
239.0916058666
 20
2.3937542076
 10
240.4828862641
 20
2.4262878351
 10
241.8748968185
 20
2.4067642454
 10
243.261798954
 20
2.3352653273
 10
244.6377755209
 20
2.212090972
 10
245.9970551955
 20
2.0377578156
 10
247.3339366862
 20
1.8129970719
 10
248.6428126476
 20
1.5387514657
 10
249.918193199
 20
1.2161712783
 10
251.1547289511
 20
0.846609523
 10
252.3472334433
 20
0.4316162704
 10
253.4907048973
 20
-0.0270678536
 10
254.5803471965
 20
-0.5275189685
 10
255.6115900024
 20
-1.0676380082
 10
256.5801079242
 20
-1.645159526
 10
257.4818386612
 20
-2.2576611958
 10
258.3130000413
 20
-2.9025739727
 10
259.0701058849
 20
-3.5771928685
 10
259.7499806269
 20
-4.278688297
 10
260.3497726364
 20
-5.0041179427
 10
260.8669661773
 20
-5.7504391014
 10
261.29939196
 20
-6.514521443
 10
261.6452362407
 20
-7.2931601405
 10
261.9030484282
 20
-8.0830893126
 10
262.0717471685
 20
-8.8809957219
 10
262.1506248806
 20
-9.6835326715
 10
262.15696746
 20
-9.9849911244
  0
ARC
  5
11D
330
1F
100
AcDbEntity
  8
0
  6
Continuous
 62
     1
370
    25
100
AcDbCircle
 10
231.400741592
 20
-12.6938915089
 30
0.0
 40
12.93342664761952
100
AcDbArc
 50
117.3731068899
 51
153.8893734765
  0
ENDSEC
  0
SECTION
  2
OBJECTS
  0
DICTIONARY
  5
C
330
0
100
AcDbDictionary
281
     1
  3
ACAD_GROUP
350
D
  3
ACAD_LAYOUT
350
1A
  3
ACAD_MLINESTYLE
350
17
  3
ACAD_PLOTSETTINGS
350
19
  3
ACAD_PLOTSTYLENAME
350
E
  3
ACAD_SCALELIST
350
47
  3
DWGPROPS
350
11E
  0
DICTIONARY
  5
D
102
{ACAD_REACTORS
330
C
102
}
330
C
100
AcDbDictionary
281
     1
  0
DICTIONARY
  5
1A
102
{ACAD_REACTORS
330
C
102
}
330
C
100
AcDbDictionary
281
     1
  3
Layout1
350
1E
  3
Layout2
350
26
  3
Model
350
22
  0
DICTIONARY
  5
17
102
{ACAD_REACTORS
330
C
102
}
330
C
100
AcDbDictionary
281
     1
  3
Standard
350
18
  0
DICTIONARY
  5
19
102
{ACAD_REACTORS
330
C
102
}
330
C
100
AcDbDictionary
281
     1
  0
ACDBDICTIONARYWDFLT
  5
E
102
{ACAD_REACTORS
330
C
102
}
330
C
100
AcDbDictionary
281
     1
  3
Normal
350
F
100
AcDbDictionaryWithDefault
340
F
  0
DICTIONARY
  5
47
102
{ACAD_REACTORS
330
C
102
}
330
C
100
AcDbDictionary
281
     1
  3
A0
350
48
  3
A1
350
49
  3
A2
350
4A
  3
A3
350
4B
  3
A4
350
4C
  3
A5
350
4D
  3
A6
350
4E
  3
A7
350
4F
  3
A8
350
50
  3
A9
350
51
  3
B0
350
52
  3
B1
350
53
  3
B2
350
54
  3
B3
350
55
  3
B4
350
56
  3
B5
350
57
  3
B6
350
58
  3
B7
350
59
  3
B8
350
5A
  3
B9
350
5B
  3
C0
350
5C
  3
C1
350
5D
  3
C2
350
5E
  3
C3
350
5F
  3
C4
350
60
  3
C5
350
61
  3
C6
350
62
  3
C7
350
63
  3
C8
350
64
  3
C9
350
65
  3
D0
350
66
  3
D1
350
67
  3
D2
350
68
  0
XRECORD
  5
11E
102
{ACAD_REACTORS
330
C
102
}
330
C
100
AcDbXrecord
280
     1
  1
DWGPROPS COOKIE
  2

  3

  4

  6

  7

  8
b.kav
  9

300
=
301
=
302
=
303
=
304
=
305
=
306
=
307
=
308
=
309
=
 40
0.0
 41
2459741.479500729
 42
2459741.479500914
  1

 90
        0
  0
LAYOUT
  5
1E
102
{ACAD_REACTORS
330
1A
102
}
330
1A
100
AcDbPlotSettings
  1

  2
none_device
  4

  6

 40
0.0
 41
0.0
 42
0.0
 43
0.0
 44
0.0
 45
0.0
 46
0.0
 47
0.0
 48
0.0
 49
0.0
140
0.0
141
0.0
142
1.0
143
1.0
 70
   688
 72
     1
 73
     0
 74
     5
  7

 75
    16
147
1.0
148
0.0
149
0.0
100
AcDbLayout
  1
Layout1
 70
     1
 71
     1
 10
0.0
 20
0.0
 11
420.0
 21
297.0
 12
0.0
 22
0.0
 32
0.0
 14
1.0000000000E+20
 24
1.0000000000E+20
 34
1.0000000000E+20
 15
-1.0000000000E+20
 25
-1.0000000000E+20
 35
-1.0000000000E+20
146
0.0
 13
0.0
 23
0.0
 33
0.0
 16
1.0
 26
0.0
 36
0.0
 17
0.0
 27
1.0
 37
0.0
 76
     0
330
1B
  0
LAYOUT
  5
26
102
{ACAD_REACTORS
330
1A
102
}
330
1A
100
AcDbPlotSettings
  1

  2
none_device
  4

  6

 40
0.0
 41
0.0
 42
0.0
 43
0.0
 44
0.0
 45
0.0
 46
0.0
 47
0.0
 48
0.0
 49
0.0
140
0.0
141
0.0
142
1.0
143
1.0
 70
   688
 72
     1
 73
     0
 74
     5
  7

 75
    16
147
1.0
148
0.0
149
0.0
100
AcDbLayout
  1
Layout2
 70
     1
 71
     2
 10
0.0
 20
0.0
 11
0.0
 21
0.0
 12
0.0
 22
0.0
 32
0.0
 14
0.0
 24
0.0
 34
0.0
 15
0.0
 25
0.0
 35
0.0
146
0.0
 13
0.0
 23
0.0
 33
0.0
 16
1.0
 26
0.0
 36
0.0
 17
0.0
 27
1.0
 37
0.0
 76
     0
330
23
  0
LAYOUT
  5
22
102
{ACAD_REACTORS
330
1A
102
}
330
1A
100
AcDbPlotSettings
  1

  2
none_device
  4
Letter_(8.50_x_11.00_Inches)
  6

 40
6.35
 41
6.35
 42
6.35000508
 43
6.35000508
 44
215.9
 45
279.4
 46
0.0
 47
0.0
 48
0.0
 49
0.0
140
0.0
141
0.0
142
1.0
143
1.0
 70
  1712
 72
     1
 73
     0
 74
     0
  7

 75
     0
147
1.0
148
0.0
149
0.0
100
AcDbLayout
  1
Model
 70
     1
 71
     0
 10
0.0
 20
0.0
 11
279.4
 21
215.9
 12
0.0
 22
0.0
 32
0.0
 14
0.0
 24
0.0
 34
0.0
 15
279.4
 25
215.9
 35
0.0
146
0.0
 13
0.0
 23
0.0
 33
0.0
 16
1.0
 26
0.0
 36
0.0
 17
0.0
 27
1.0
 37
0.0
 76
     0
330
1F
331
29
  0
MLINESTYLE
  5
18
102
{ACAD_REACTORS
330
17
102
}
330
17
100
AcDbMlineStyle
  2
Standard
 70
     0
  3

 62
   256
 51
90.0
 52
90.0
 71
     2
 49
0.5
 62
   256
  6
BYLAYER
 49
-0.5
 62
   256
  6
BYLAYER
  0
ACDBPLACEHOLDER
  5
F
102
{ACAD_REACTORS
330
E
102
}
330
E
  0
SCALE
  5
48
102
{ACAD_REACTORS
330
47
102
}
330
47
100
AcDbScale
 70
     0
300
1:1
140
1.0
141
1.0
290
     1
  0
SCALE
  5
49
102
{ACAD_REACTORS
330
47
102
}
330
47
100
AcDbScale
 70
     0
300
1:2
140
1.0
141
2.0
290
     0
  0
SCALE
  5
4A
102
{ACAD_REACTORS
330
47
102
}
330
47
100
AcDbScale
 70
     0
300
1:4
140
1.0
141
4.0
290
     0
  0
SCALE
  5
4B
102
{ACAD_REACTORS
330
47
102
}
330
47
100
AcDbScale
 70
     0
300
1:5
140
1.0
141
5.0
290
     0
  0
SCALE
  5
4C
102
{ACAD_REACTORS
330
47
102
}
330
47
100
AcDbScale
 70
     0
300
1:8
140
1.0
141
8.0
290
     0
  0
SCALE
  5
4D
102
{ACAD_REACTORS
330
47
102
}
330
47
100
AcDbScale
 70
     0
300
1:10
140
1.0
141
10.0
290
     0
  0
SCALE
  5
4E
102
{ACAD_REACTORS
330
47
102
}
330
47
100
AcDbScale
 70
     0
300
1:16
140
1.0
141
16.0
290
     0
  0
SCALE
  5
4F
102
{ACAD_REACTORS
330
47
102
}
330
47
100
AcDbScale
 70
     0
300
1:20
140
1.0
141
20.0
290
     0
  0
SCALE
  5
50
102
{ACAD_REACTORS
330
47
102
}
330
47
100
AcDbScale
 70
     0
300
1:30
140
1.0
141
30.0
290
     0
  0
SCALE
  5
51
102
{ACAD_REACTORS
330
47
102
}
330
47
100
AcDbScale
 70
     0
300
1:40
140
1.0
141
40.0
290
     0
  0
SCALE
  5
52
102
{ACAD_REACTORS
330
47
102
}
330
47
100
AcDbScale
 70
     0
300
1:50
140
1.0
141
50.0
290
     0
  0
SCALE
  5
53
102
{ACAD_REACTORS
330
47
102
}
330
47
100
AcDbScale
 70
     0
300
1:100
140
1.0
141
100.0
290
     0
  0
SCALE
  5
54
102
{ACAD_REACTORS
330
47
102
}
330
47
100
AcDbScale
 70
     0
300
2:1
140
2.0
141
1.0
290
     0
  0
SCALE
  5
55
102
{ACAD_REACTORS
330
47
102
}
330
47
100
AcDbScale
 70
     0
300
4:1
140
4.0
141
1.0
290
     0
  0
SCALE
  5
56
102
{ACAD_REACTORS
330
47
102
}
330
47
100
AcDbScale
 70
     0
300
8:1
140
8.0
141
1.0
290
     0
  0
SCALE
  5
57
102
{ACAD_REACTORS
330
47
102
}
330
47
100
AcDbScale
 70
     0
300
10:1
140
10.0
141
1.0
290
     0
  0
SCALE
  5
58
102
{ACAD_REACTORS
330
47
102
}
330
47
100
AcDbScale
 70
     0
300
100:1
140
100.0
141
1.0
290
     0
  0
SCALE
  5
59
102
{ACAD_REACTORS
330
47
102
}
330
47
100
AcDbScale
 70
     0
300
1/128" = 1'-0"
140
0.0078125
141
12.0
290
     0
  0
SCALE
  5
5A
102
{ACAD_REACTORS
330
47
102
}
330
47
100
AcDbScale
 70
     0
300
1/64" = 1'-0"
140
0.015625
141
12.0
290
     0
  0
SCALE
  5
5B
102
{ACAD_REACTORS
330
47
102
}
330
47
100
AcDbScale
 70
     0
300
1/32" = 1'-0"
140
0.03125
141
12.0
290
     0
  0
SCALE
  5
5C
102
{ACAD_REACTORS
330
47
102
}
330
47
100
AcDbScale
 70
     0
300
1/16" = 1'-0"
140
0.0625
141
12.0
290
     0
  0
SCALE
  5
5D
102
{ACAD_REACTORS
330
47
102
}
330
47
100
AcDbScale
 70
     0
300
3/32" = 1'-0"
140
0.09375
141
12.0
290
     0
  0
SCALE
  5
5E
102
{ACAD_REACTORS
330
47
102
}
330
47
100
AcDbScale
 70
     0
300
1/8" = 1'-0"
140
0.125
141
12.0
290
     0
  0
SCALE
  5
5F
102
{ACAD_REACTORS
330
47
102
}
330
47
100
AcDbScale
 70
     0
300
3/16" = 1'-0"
140
0.1875
141
12.0
290
     0
  0
SCALE
  5
60
102
{ACAD_REACTORS
330
47
102
}
330
47
100
AcDbScale
 70
     0
300
1/4" = 1'-0"
140
0.25
141
12.0
290
     0
  0
SCALE
  5
61
102
{ACAD_REACTORS
330
47
102
}
330
47
100
AcDbScale
 70
     0
300
3/8" = 1'-0"
140
0.375
141
12.0
290
     0
  0
SCALE
  5
62
102
{ACAD_REACTORS
330
47
102
}
330
47
100
AcDbScale
 70
     0
300
1/2" = 1'-0"
140
0.5
141
12.0
290
     0
  0
SCALE
  5
63
102
{ACAD_REACTORS
330
47
102
}
330
47
100
AcDbScale
 70
     0
300
3/4" = 1'-0"
140
0.75
141
12.0
290
     0
  0
SCALE
  5
64
102
{ACAD_REACTORS
330
47
102
}
330
47
100
AcDbScale
 70
     0
300
1" = 1'-0"
140
1.0
141
12.0
290
     0
  0
SCALE
  5
65
102
{ACAD_REACTORS
330
47
102
}
330
47
100
AcDbScale
 70
     0
300
1-1/2" = 1'-0"
140
1.5
141
12.0
290
     0
  0
SCALE
  5
66
102
{ACAD_REACTORS
330
47
102
}
330
47
100
AcDbScale
 70
     0
300
3" = 1'-0"
140
3.0
141
12.0
290
     0
  0
SCALE
  5
67
102
{ACAD_REACTORS
330
47
102
}
330
47
100
AcDbScale
 70
     0
300
6" = 1'-0"
140
6.0
141
12.0
290
     0
  0
SCALE
  5
68
102
{ACAD_REACTORS
330
47
102
}
330
47
100
AcDbScale
 70
     0
300
1'-0" = 1'-0"
140
12.0
141
12.0
290
     0
  0
ENDSEC
  0
EOF
